Cifra Club

Majora's Mask - Deku Palace

Zelda

Cifra: Principal (violão e guitarra)
Selo Cifra Club: esta cifra foi revisada para atender aos critérios oficiais da nossa Equipe de Qualidade.
tom: C
Versão 1

Parte 1:

E |-----7-----8--7-----5--------5--------------------------------|
B |-5------------------------8--------8-----7-----5-----5--------|
G |-----------------------------------------------------------7--|
D |--------------------------------------------------------------|
A |--------------------------------------------------------------|
E |--------------------------------------------------------------|

E |-----------5--------------------------------------|
B |-5---8--------8-----7-----5--7------5----------5--|
G |------------------------------------------7-------|
D |--------------------------------------------------|
A |--------------------------------------------------|
E |--------------------------------------------------|

E |-----7-----8--7-----5--------5--------------------------------|
B |-5------------------------8--------8-----7-----5-----5--------|
G |-----------------------------------------------------------7--|
D |--------------------------------------------------------------|
A |--------------------------------------------------------------|
E |--------------------------------------------------------------|

E |-----------5-----------------------------|
B |-5---8--------8-----7-----5-----------5--|
G |--------------------------------7--------|
D |-----------------------------------------|
A |-----------------------------------------|
E |-----------------------------------------|

Parte 2:

E |-----19----20-19----17-------17--------------------------------|
B |-17-----------------------20-------20----19----17----17--------|
G |-----------------------------------------------------------19--|
D |---------------------------------------------------------------|
A |---------------------------------------------------------------|
E |---------------------------------------------------------------|

E |-----------17--------------------------------------|
B |-17--20-------20----19----17-19----17----------17--|
G |-----------------------------------------19--------|
D |---------------------------------------------------|
A |---------------------------------------------------|
E |---------------------------------------------------|

E |-----19----20-19----17-------17--------------------------------|
B |-17-----------------------20-------20----19----17----17--------|
G |-----------------------------------------------------------19--|
D |---------------------------------------------------------------|
A |---------------------------------------------------------------|
E |---------------------------------------------------------------|

E |----------------17------------------------|
B |-17--19---20-------20----19----17-----17--|
G |----------------------------------16------|
D |------------------------------------------|
A |------------------------------------------|
E |------------------------------------------|

Parte 2, uma oitava abaixo do original:

E |-----7-----8--7-----5--------5--------------------------------|
B |-5------------------------8--------8-----7-----5-----5--------|
G |-----------------------------------------------------------7--|
D |--------------------------------------------------------------|
A |--------------------------------------------------------------|
E |--------------------------------------------------------------|

E |-----------5--------------------------------------|
B |-5---8--------8-----7-----5--7------5----------5--|
G |------------------------------------------7-------|
D |--------------------------------------------------|
A |--------------------------------------------------|
E |--------------------------------------------------|

E |-----7-----8--7-----5--------5--------------------------------|
B |-5------------------------8--------8-----7-----5-----5--------|
G |-----------------------------------------------------------7--|
D |--------------------------------------------------------------|
A |--------------------------------------------------------------|
E |--------------------------------------------------------------|

E |------------5-----------0---0--|
B |-5--7--8-------8---7------0----|
G |-------------------------------|
D |-------------------------------|
A |-------------------------------|
E |-------------------------------|

Parte 3:

E |-10----------------7-----8-----10-8-----7-----7--------|
B |-----10-----10--------------------------------------8--|
G |-------------------------------------------------------|
D |-------------------------------------------------------|
A |-------------------------------------------------------|
E |-------------------------------------------------------|

E |-10---------------7-----8-----10-7-----------|
B |-----10-----10----------------------------8--|
G |---------------------------------------------|
D |---------------------------------------------|
A |---------------------------------------------|
E |---------------------------------------------|

E |-10---------5-----7-----8-----10-7-----------------------|
B |-----10--------------------------------8-----8-----8-----|
G |---------------------------------------------------------|
D |---------------------------------------------------------|
A |---------------------------------------------------------|
E |---------------------------------------------------------|

E |----------------0--------------0----------|
B |--10----8---7---------7-------------------|
G |----------------------------8-------------|
D |------------------------------------------|
A |------------------------------------------|
E |------------------------------------------|

Parte 4:

E |-0-----0---|-0----0-----0-----0---|
B |-12----12--|-12---10----13----12--|
G |-----------|----------------------|
D |-----------|----------------------|
A |-----------|----------------------|
E |-----------|----------------------|

E |-0-----0---|-5----3-----2-----0---|
B |-12----12--|-3----3-----3-----0---|
G |-----------|----------------------|
D |-----------|----------------------|
A |-----------|----------------------|
E |-----------|----------------------|

Parte 4, adaptado para uma oitava abaixo do tom original:

E |-0-----0---|-0----0-----0-----0---|
B |-0-----0---|-0----------1-----0---|
G |-----------|------2---------------|
D |-----------|----------------------|
A |-----------|----------------------|
E |-----------|----------------------|

E |-0-----0---|----------------------|
B |-0-----0---|----------------------|
G |-----------|-2----0---------------|
D |-----------|-------------4----2---|
A |-----------|----------------------|
E |-----------|----------------------|

Versão 2

[1]

E |-----7-8-7--5----5-----------|-------5--------------------|
B |--5------------8---8-7-5--5--|--5--8---8--7--5-7-----5----|
G |-----------------------------|-------------------7-7------|
D |-----------------------------|----------------------------|
A |-----------------------------|----------------------------|
E |-----------------------------|----------------------------|

|-----7-8-7--5----5-----------|--------5------------------|
|--5------------8---8-7-5--5--|--5-7-8---8--7--5-----5----|
|-----------------------------|-------------------7-------|
|-----------------------------|---------------------------|
|-----------------------------|---------------------------|
|-----------------------------|---------------------------|

[2]

|-----7-8-7--5----5-----------|-------5--------------------|
|--5------------8---8-7-5--5--|--5--8---8--7--5-7-----5----|
|-----------------------------|-------------------7-7------|
|-----------------------------|----------------------------|
|-----------------------------|----------------------------|
|-----------------------------|----------------------------|

|-----7-8-7--5----5-----------|----------------------------|
|--5------------8---8-7-5--5--|--8--10-8-7-----------------|
|-----------------------------|-------------9-7-9--7--9----|
|-----------------------------|----------------------------|
|-----------------------------|----------------------------|
|-----------------------------|----------------------------|

[3]

|---10---------7-8-10-8--7--7-----|--10---------7-8-10-7--------|
|-------10--10-----------------8--|------10--10-----------------|
|---------------------------------|-----------------------------|
|---------------------------------|-----------------------------|
|---------------------------------|-----------------------------|
|---------------------------------|-----------------------------|

|--10---------7-8-10-7--------7--|---------------------------|
|------10--10-----------8--8-----|--10--8-7----7-------------|
|--------------------------------|----------9----7-9---------|
|--------------------------------|---------------------------|
|--------------------------------|---------------------------|
|--------------------------------|---------------------------|

|-----7-8-7--5----5-----------|-------5--------------------|
|--5------------8---8-7-5--5--|--5--8---8--7--5-7-----5----|
|-----------------------------|-------------------7-7------|
|-----------------------------|----------------------------|
|-----------------------------|----------------------------|
|-----------------------------|----------------------------|

[4]

|-----7-8-7--5----5-----------|--------5------------------|--7--------7--------|
|--5------------8---8-7-5--5--|--5-7-8---8--7--5-----5----|--5--------5--------|
|-----------------------------|-------------------7-------|--------------------|
|-----------------------------|---------------------------|--------------------|
|-----------------------------|---------------------------|--------------------|
|-----------------------------|---------------------------|--------------------|

|--7----5--8--7--------|--7--------7--------|--5----3--2--0--------|
|--5----3--6--5--------|--5--------5--------|--3----1--0-----------|
|----------------------|--------------------|-------------4--------|
|----------------------|--------------------|----------------------|
|----------------------|--------------------|----------------------|
|----------------------|--------------------|----------------------|


Tocar nessa ordem: 1,2,3,1 e 4
Outros vídeos desta música
2.204 exibições
    • ½ Tom
    • A
    • Bb
    • B
    • C
    • Db
    • D
    • Eb
    • E
    • F
    • F#
    • G
    • Ab
  • Adicionar à lista

Afinação da cifra

Afinador online

    0 comentários

    Ver todos os comentários

    Entre para o Cifra Club PRO

    Tenha acesso a benefícios exclusivos no App e no Site

    • Chega de anúncios

    • Mais recursos no app do Afinador

    • Atendimento Prioritário

    • Aumente seu limite de lista

    • Ajude a produzir mais conteúdo

    Cifra Club Pro

    Aproveite o Cifra Club com benefícios exclusivos e sem anúncios
    Cifra Club Pro
    Aproveite o Cifra Club com benefícios exclusivos e sem anúncios
    OK