Cifra Club

Majora's Mask - Elegy Of Emptiness

Zelda

Cifra: Principal (violão e guitarra)
Selo Cifra Club: esta cifra foi revisada para atender aos critérios oficiais da nossa Equipe de Qualidade.
tom: Db
Violão 1

E |----------------|------------------|----------------|------------------|
B |----------------|------------------|--------12------|--------15--12----|
G |----------------|------------------|--14--------14--|-----14-----------|
D |----------------|--------12--------|----------------|--15--------------|
A |--12----14--12--|-----12-----14----|----------------|------------------|
E |----------------|--13--------------|----------------|------------------|

E |----------------|--------------|----------------|--------------|
B |----------------|--------------|----------------|--------------|
G |----------------|--------------|----------------|--------------|
D |----------------|--------------|----------------|--------------|
A |--12----14--12--|--------------|--12----14--12--|--------11----|
E |----------------|--14----------|----------------|--14----------|

E |--------------|--------------|---------------|
B |--------------|--------------|---------------|
G |--12----11----|--13----------|---------------|
D |--------------|--------------|---------------|
A |--12----------|--------------|---------------|
E |--------------|--------------|---------------|

Violão 2

E |--------------|-------------7--|--------------|-------------7--|
B |--------------|-----------0----|--------------|-----------0----|
G |--------------|----------------|--------------|----------------|
D |--------------|----------------|--------------|----------------|
A |--------------|----------------|--------------|----------------|
E |--------------|----------------|--------------|----------------|

E |--------------|--7----------------|--------------|--7----------------|
B |--------------|----7--------------|--------------|----7--------------|
G |--------------|------8------------|--------------|------8------------|
D |--------------|--------9-------9--|--------------|--------9-------9--|
A |--------------|------------6-9----|--------------|------------6-9----|
E |--------------|----------8--------|--------------|----------8--------|

E |--0----------------|----------------0--|----10----------|
B |----0-----0--------|--------------0----|--9-12----------|
G |------0-----0------|-------------------|----------------|
D |-------------------|------------6------|----------------|
A |--------7-----7----|------7---7--------|----------------|
E |----------------8--|----8---8----------|----------------|

Violão 3

E |--------------|--------------|--------------|---------------|
B |--------------|--------------|--------------|---------------|
G |--------------|--------------|--------------|---------------|
D |--2-----3-----|--0-----------|--2----3------|--0------------|
A |--2-----1-----|-------4------|--2----1------|-------4-------|
E |--------------|--4----3------|--------------|--4----3-------|

E |--------------|--------------|--------------|---------------|
B |--------------|--------------|--------------|---------------|
G |--------------|--------------|--------------|---------------|
D |--2-----------|--1-----------|--2-----------|--1------------|
A |--2-----------|--2-----------|--2-----------|--2------------|
E |--------------|--------------|--------------|---------------|

E |--------------|--------------|--------------|
B |--------------|--------------|--------------|
G |--------------|--------------|--------------|
D |--------------|--------------|--------------|
A |--2-----------|--------------|--2-----------|
E |--0-----------|--------------|--0-----------|
Outros vídeos desta música
    1.109 exibições
      • ½ Tom
      • A
      • Bb
      • B
      • C
      • Db
      • D
      • Eb
      • E
      • F
      • F#
      • G
      • Ab
    • Adicionar à lista

    Afinação da cifra

    Afinador online

      0 comentários

      Ver todos os comentários

      Entre para o Cifra Club PRO

      Tenha acesso a benefícios exclusivos no App e no Site

      • Chega de anúncios

      • Mais recursos no app do Afinador

      • Atendimento Prioritário

      • Aumente seu limite de lista

      • Ajude a produzir mais conteúdo

      Cifra Club Pro

      Aproveite o Cifra Club com benefícios exclusivos e sem anúncios
      Cifra Club Pro
      Aproveite o Cifra Club com benefícios exclusivos e sem anúncios
      OK