Cifra Club

Majora's Mask - Milk Bar

Zelda

Cifra: Principal (violão e guitarra)
Selo Cifra Club: esta cifra foi revisada para atender aos critérios oficiais da nossa Equipe de Qualidade.
tom: Bb
E |----3-5-6-5---5-3-5-3-1---------1--3----|
B |--4-----------------------3-1-3-------3-|
G |----------------------------------------|
D |----------------------------------------|
A |----------------------------------------|
E |----------------------------------------|

E |----3-5-6-5---5-3-5-3-1---6-|
B |--4-------------------------|
G |----------------------------|
D |----------------------------|
A |----------------------------|
E |----------------------------|

E |----3-5-6-5---5-3-5-3-1---------1--3----|
B |--4-----------------------3-1-3-------3-|
G |----------------------------------------|
D |----------------------------------------|
A |----------------------------------------|
E |----------------------------------------|

E |----3-5-6-5---5-3-5-3-1---6-5-5-6-5-5-6-|
B |--4-------------------------------------|
G |----------------------------------------|
D |----------------------------------------|
A |----------------------------------------|
E |----------------------------------------|

E |------------------------------|
B |----1-2-3-----3-3---3-1-------|
G |--3-------2-2-----------3-2-3-|
D |------------------------------|
A |------------------------------|
E |------------------------------|

E |------------------------------|
B |--------1-----1-1---1---------|
G |--0-2-3---0-0---------3-2-0-2-|
D |------------------------------|
A |------------------------------|
E |------------------------------|

E |--------------------------------------|
B |----1-2-3-----3-3---3-1---------1---3-|
G |--3-------2-2-----------3-2-3---------|
D |--------------------------------------|
A |--------------------------------------|
E |--------------------------------------|

E |--------------------------|
B |--4---4-4-3-1---------1-3-|
G |--------------2---2-3-----|
D |--------------------------|
A |--------------------------|
E |--------------------------|

Repete
00:00 / 00:00
Outros vídeos desta música
Repetir
Outros vídeos desta música
1.025 exibições
    • ½ Tom
    • A
    • Bb
    • B
    • C
    • Db
    • D
    • Eb
    • E
    • F
    • F#
    • G
    • Ab
  • Adicionar à lista

Afinação da cifra

Afinador online

    0 comentários

    Ver todos os comentários

    Entre para o Cifra Club PRO

    Tenha acesso a benefícios exclusivos no App e no Site

    • Chega de anúncios

    • Mais recursos no app do Afinador

    • Atendimento Prioritário

    • Aumente seu limite de lista

    • Ajude a produzir mais conteúdo

    00:00 / 00:00

    Cifra Club Pro

    Aproveite o Cifra Club com benefícios exclusivos e sem anúncios
    Cifra Club Pro
    Aproveite o Cifra Club com benefícios exclusivos e sem anúncios
    OK