Cifra Club

Majora's Mask - Music Box House

Zelda

Cifra: Principal (violão e guitarra)
Selo Cifra Club: esta cifra foi revisada para atender aos critérios oficiais da nossa Equipe de Qualidade.
tom: C
Versão 1:

E |--3---2-3-5--3-2-3---0-----3---2-3-5--3-0-1-|
B |--------------------------------------------|
G |--------------------------------------------|
D |--------------------------------------------|
A |--------------------------------------------|
E |--------------------------------------------|

E |--1---0-1-3--1-0-1---------1---0-1-7--5-3-0-|
B |---------------------3----------------------|
G |--------------------------------------------|
D |--------------------------------------------|
A |--------------------------------------------|
E |--------------------------------------------|

E |--3---2-3-5--3-2-3---0-----8-7-8-10-8-6-5-|
B |------------------------------------------|
G |------------------------------------------|
D |------------------------------------------|
A |------------------------------------------|
E |------------------------------------------|

E |--5---4-5-8-7-5-3---2-3-7-5-3-1---0-1-3-1-----|
B |------------------------------------------3-1-|
G |----------------------------------------------|
D |----------------------------------------------|
A |----------------------------------------------|
E |----------------------------------------------|

Versão 2:

E |---5-----------5-------5---3-----------3-------3-----|
B |-----6-------6---6---6-------5-------5---5---5-------|
G |-------5---5-------5-----------5---5-------5---------|
D |---------7-----------------------5-------------------|
A |-----------------------------------------------------|
E |-----------------------------------------------------|

E |---1-----------1-------1---0-----------0-------0-----|
B |-----3-------3---3---3-------1-------1---1---1-------|
G |-------4---4-------4-----------0---0-------0---------|
D |---------5-----------------------2-------------------|
A |-----------------------------------------------------|
E |-----------------------------------------------------|

E |---5-----------5-------5---3-----------3-------3-----|
B |-----6-------6---6---6-------5-------5---5---5-------|
G |-------5---5-------5-----------5---5-------5---------|
D |---------7-----------------------5-------------------|
A |-----------------------------------------------------|
E |-----------------------------------------------------|

E |---1-----------1-------------------------------------|
B |-----3-------3---3-----0-3-1-------------------------|
G |-------4---4-------4-2-------------------------------|
D |---------5-------------------------------------------|
A |-----------------------------------------------------|
E |-----------------------------------------------------|
00:00 / 00:00
Outros vídeos desta música
Repetir
Outros vídeos desta música
867 exibições
    • ½ Tom
    • A
    • Bb
    • B
    • C
    • Db
    • D
    • Eb
    • E
    • F
    • F#
    • G
    • Ab
  • Adicionar à lista

Afinação da cifra

Afinador online

    0 comentários

    Ver todos os comentários

    Entre para o Cifra Club PRO

    Tenha acesso a benefícios exclusivos no App e no Site

    • Chega de anúncios

    • Mais recursos no app do Afinador

    • Atendimento Prioritário

    • Aumente seu limite de lista

    • Ajude a produzir mais conteúdo

    00:00 / 00:00

    Cifra Club Pro

    Aproveite o Cifra Club com benefícios exclusivos e sem anúncios
    Cifra Club Pro
    Aproveite o Cifra Club com benefícios exclusivos e sem anúncios
    OK