Cifra Club

Majora's Mask - New Wave Bossa Nova

Zelda

Cifra: Principal (violão e guitarra)
Selo Cifra Club: esta cifra foi revisada para atender aos critérios oficiais da nossa Equipe de Qualidade.
tom: C
E |-------10-------------------|
B |--12------12-10------12-10--|
G |------------------10--------|
D |----------------------------|
A |----------------------------|
E |----------------------------|

E |-------------10-12-----10------------15-12--------------|
B |----------12------------------12-----------15-12--------|
G |-----9-12----------------------------------------14-12--|
D |--12----------------------------------------------------|
A |--------------------------------------------------------|
E |--------------------------------------------------------|

E |---------------------------------------------|
B |-------13-----------12------13-----------13--|
G |--10----------9------------------------------|
D |--------------------13------14--------14-----|
A |-----------------------------------15--------|
E |---------------------------------------------|

Saxofone
E |---------------------|
B |---------------------|
G |------7--------------|
D |--9-----9-7-----9-7--|
A |--------------8------|
E |---------------------|

E |-------------------------------------------|
B |-------------------------------------------|
G |-------------------------------------------|
D |-------10----------------------------------|
A |--10------10-8---7-8-7--------7-8---10--7--|
E |-------------------------8-10--------------|

00:00 / 00:00
Outros vídeos desta música
Repetir
Outros vídeos desta música
2.083 exibições
    • ½ Tom
    • A
    • Bb
    • B
    • C
    • Db
    • D
    • Eb
    • E
    • F
    • F#
    • G
    • Ab
  • Adicionar à lista

Afinação da cifra

Afinador online

    0 comentários

    Ver todos os comentários

    Entre para o Cifra Club PRO

    Tenha acesso a benefícios exclusivos no App e no Site

    • Chega de anúncios

    • Mais recursos no app do Afinador

    • Atendimento Prioritário

    • Aumente seu limite de lista

    • Ajude a produzir mais conteúdo

    00:00 / 00:00

    Cifra Club Pro

    Aproveite o Cifra Club com benefícios exclusivos e sem anúncios
    Cifra Club Pro
    Aproveite o Cifra Club com benefícios exclusivos e sem anúncios
    OK