Cifra Club

Majora's Mask - Piano Solo

Zelda

Cifra: Principal (violão e guitarra)
Selo Cifra Club: esta cifra foi revisada para atender aos critérios oficiais da nossa Equipe de Qualidade.
tom: D
E |-----------------------------------------------------------------|
B |--------------------------------------4h5-5-6-3-----1--2-3-0-----|
G |------2--------------2-4------------2-------------2----------0---|
D |--0-3---0----------3-----3---------------------------------------|
A |-----------------------------------------------------------------|
E |-----------------------------------------------------------------|

E |------------------1h2-2-3-0---5-3-2-0------1h2---------|
B |----------------0----------------------3-------2-----0-|
G |----0----------------------------------------------2---|
D |--0---2---2--------------------------------------------|
A |-------------------------------------------------------|
E |-------------------------------------------------------|

Baixo

G |--2-2--------------4-4-2------------2-2--------------4-4-2----------|
D |------3-0----------------3--------------3-0----------------3--------|
A |--------------------------------------------------------------------|
E |--------------------------------------------------------------------|

G |--4-4-2------------6-6-4-0------------|
D |--------3---------------------------2-|
A |--------------------------------------|
E |--------------------------------------|

Outros vídeos desta música
2.052 exibições
    • ½ Tom
    • A
    • Bb
    • B
    • C
    • Db
    • D
    • Eb
    • E
    • F
    • F#
    • G
    • Ab
  • Adicionar à lista

Afinação da cifra

Afinador online

    0 comentários

    Ver todos os comentários

    Entre para o Cifra Club PRO

    Tenha acesso a benefícios exclusivos no App e no Site

    • Chega de anúncios

    • Mais recursos no app do Afinador

    • Atendimento Prioritário

    • Aumente seu limite de lista

    • Ajude a produzir mais conteúdo

    Cifra Club Pro

    Aproveite o Cifra Club com benefícios exclusivos e sem anúncios
    Cifra Club Pro
    Aproveite o Cifra Club com benefícios exclusivos e sem anúncios
    OK