Cifra Club

Majora's Mask - Sonata Of Awakening

Zelda

Cifra: Principal (violão e guitarra)
Selo Cifra Club: esta cifra foi revisada para atender aos critérios oficiais da nossa Equipe de Qualidade.
tom: D
Versão 1:

E |--10-7-10-7---------5--------------10-7-10-7---------5-|
B |----------------3-------3------------------------3-----|
G |-------------------------------------------------------|
D |-------------------------------------------------------|
A |-------------------------------------------------------|
E |-------------------------------------------------------|

E |--10-7-10-7---------5--------------5-----3---0---2-|
B |----------------3-------3--------------------------|
G |---------------------------------------------------|
D |---------------------------------------------------|
A |---------------------------------------------------|
E |---------------------------------------------------|

Versão 2:

E |-----10-7-10-7---------------------------10-7-10-7-------------------------|
B |---------------------10----------------------------------10----------------|
G |-----------------7-------------7---------------------7---------------------|
D |---------------------------------------------------------------------------|
A |---------------------------------------------------------------------------|
E |---------------------------------------------------------------------------|

E |---------------------------------------------------------------------------|
B |---------------------------------------------------------------------------|
G |---------------------------------------------------------------------------|
D |--------0--------0------0-3-0----0-3-0------0--------0-----0-3-0---0-3-0---|
A |-----2----2----2---2-1---------1---------2----2----2---2-1-------1---------|
E |---3---------3-------------------------3---------3-------------------------|

E |-----10-7-10-7-------------------------------------------------------------|
B |---------------------10---------------10------8---5---7--------------------|
G |-----------------7------------7--------------------------------------------|
D |---------------------------------------------------------------------------|
A |---------------------------------------------------------------------------|
E |---------------------------------------------------------------------------|

E |---------------------------------------------------------------------------|
B |--------------------------------------------------------------3-------3----|
G |------------------------------------------0-------0-------2-------2--------|
D |--------0--------0------0-3-0---0-3-0---2---2---2---2-0-4---4---4---4------|
A |-----2----2----2---2-1--------1-------3-------3----------------------------|
E |---3---------3-------------------------------------------------------------|
00:00 / 00:00
Outros vídeos desta música
Repetir
Outros vídeos desta música
1.866 exibições
    • ½ Tom
    • A
    • Bb
    • B
    • C
    • Db
    • D
    • Eb
    • E
    • F
    • F#
    • G
    • Ab
  • Adicionar à lista

Afinação da cifra

Afinador online

    0 comentários

    Ver todos os comentários

    Entre para o Cifra Club PRO

    Tenha acesso a benefícios exclusivos no App e no Site

    • Chega de anúncios

    • Mais recursos no app do Afinador

    • Atendimento Prioritário

    • Aumente seu limite de lista

    • Ajude a produzir mais conteúdo

    00:00 / 00:00

    Cifra Club Pro

    Aproveite o Cifra Club com benefícios exclusivos e sem anúncios
    Cifra Club Pro
    Aproveite o Cifra Club com benefícios exclusivos e sem anúncios
    OK