Cifra Club

Majora's Mask - Stone Tower Temple

Zelda

Cifra: Principal (violão e guitarra)
Selo Cifra Club: esta cifra foi revisada para atender aos critérios oficiais da nossa Equipe de Qualidade.
tom: C
Tom: Am

Base: Em F Dm Em F Em

Violão 1 - Tocar isso em toda canção.

E|---------------------------------------------|
G|---------------------------------------------|
B|---------------------------------------------|
D|--2-------3-------0-------2-------3-------2--|
A|---------------------------------------------|
E|---------------------------------------------|

 Violão 2 - Tocar em toda essa também.

E|----------------------------------|
G|----------------------------------|
B|----------------------------------|
D|----2---2---2-3------2---2---2-0--|
A|--0---0---0--------0---0---0------|
E|----------------------------------|

 Violão 3
E|--5-8-7----5-8-7h8p7-5-------5-8-7----5-8-7h8p7---5------|
G|---------8-------------8-5----------8-----------8--------|
B|---------------------------------------------------------|
D|---------------------------------------------------------| 2x
A|---------------------------------------------------------|
E|---------------------------------------------------------| 

 Violão 1 somente.

E|---------------------------------------------|
G|---------------------------------------------|
B|---------------------------------------------|
D|--2-------3-------0-------2-------3-------2--|
A|---------------------------------------------|
E|---------------------------------------------|

 Violão 3

E|-----------------------------------------------|
G|--5-5-3------5-3--------5-5-3------------------|
B|-----------4-----5-4-------------5-4-4-2-------|
D|-----------------------------------------------|
A|-----------------------------------------------|
E|-----------------------------------------------|

E|-----------------------------------------------|
G|--5-5-3----5-3--------5-6-5-3------------------|
B|---------------5-4------------5-4-2------------|
D|-----------------------------------------------|
A|-----------------------------------------------|
E|-----------------------------------------------|

 Violão 1 e 3

E|----5-8-7h8h7------5-8-7h8h7-|
G|--5------------8-5-----------|
B|-----------------------------|
D|-----------------------------| 2x
A|-----------------------------|
E|-----------------------------| 

Repete
Outros vídeos desta música
2.221 exibições
    • ½ Tom
    • A
    • Bb
    • B
    • C
    • Db
    • D
    • Eb
    • E
    • F
    • F#
    • G
    • Ab
  • Adicionar à lista

Afinação da cifra

Afinador online

    0 comentários

    Ver todos os comentários

    Entre para o Cifra Club PRO

    Tenha acesso a benefícios exclusivos no App e no Site

    • Chega de anúncios

    • Mais recursos no app do Afinador

    • Atendimento Prioritário

    • Aumente seu limite de lista

    • Ajude a produzir mais conteúdo

    Cifra Club Pro

    Aproveite o Cifra Club com benefícios exclusivos e sem anúncios
    Cifra Club Pro
    Aproveite o Cifra Club com benefícios exclusivos e sem anúncios
    OK