Cifra Club

Oracle of Seasons - Inside the Houses

Zelda

Cifra: Principal (violão e guitarra)
Selo Cifra Club: esta cifra foi revisada para atender aos critérios oficiais da nossa Equipe de Qualidade.
tom: D
 (violão 1)
E |---7--8--7--8--7-------------------5--6--5--6--5------------------|
B |--------------------8---------8---------------------6---------6---|
G |-------------------------9-------------------------------7--------|
D |------------------------------------------------------------------|
A |------------------------------------------------------------------|
E |------------------------------------------------------------------|

E |---7--8--7--8--7-------------------5--6--5--6--5------------------|
B |--------------------8---------8---------------------6---------6---|
G |-------------------------9-------------------------------7--------|
D |------------------------------------------------------------------|
A |------------------------------------------------------------------|
E |------------------------------------------------------------------|

E |---3--4--3--4--3--------------3----1--3--1--3--1------------------|
B |--------------------4-------------------------------3---------3---|
G |-------------------------5-------------------------------3--------|
D |------------------------------------------------------------------|
A |------------------------------------------------------------------|
E |------------------------------------------------------------------|

E |--------------------------1----3----------------15----------------|
B |---1-----------------1--------------------------------------------|
G |----------------2-------------------------------------------------|
D |------------------------------------------------------------------|
A |------------------------------------------------------------------|
E |------------------------------------------------------------------|

 (violão 2)
E |------------------------------------------------------------------|
B |-------------0----------------------------------------------------|
G |--------0-------------------------------2-------------------------|
D |-----------------------------------3------------------------------|
A |---3--------------------------1-----------------------------------|
E |------------------------------------------------------------------|

E |------------------------------------------------------------------|
B |-------------0----------------------------------------------------|
G |--------0-------------------------------2-------------------------|
D |-----------------------------------3------------------------------|
A |---3--------------------------1-----------------------------------|
E |------------------------------------------------------------------|

E |------------------------------------------------------------------|
B |------------------------------------------------------------------|
G |-------------1--------------------------0-------------------------|
D |--------1--------------------------0------------------------------|
A |------------------------------------------------------------------|
E |---4--------------------------3-----------------------------------|

E |------------------------------------------------------------------|
B |------------------------------------------------------------------|
G |---------------------------------------------0--------------------|
D |-------------3--------------------------0---------0---------------|
A |--------3--------------------------2-------------------2----------|
E |---1--------------------------3-----------------------------------|
Outros vídeos desta música
331 exibições
    • ½ Tom
    • A
    • Bb
    • B
    • C
    • Db
    • D
    • Eb
    • E
    • F
    • F#
    • G
    • Ab
  • Adicionar à lista

Afinação da cifra

Afinador online

    0 comentários

    Ver todos os comentários

    Entre para o Cifra Club PRO

    Tenha acesso a benefícios exclusivos no App e no Site

    • Chega de anúncios

    • Mais recursos no app do Afinador

    • Atendimento Prioritário

    • Aumente seu limite de lista

    • Ajude a produzir mais conteúdo

    Cifra Club Pro

    Aproveite o Cifra Club com benefícios exclusivos e sem anúncios
    Cifra Club Pro
    Aproveite o Cifra Club com benefícios exclusivos e sem anúncios
    OK