Cifra Club

The Legendary Hero

Zelda

Cifra: Principal (violão e guitarra)
Selo Cifra Club: esta cifra foi revisada para atender aos critérios oficiais da nossa Equipe de Qualidade.
tom: C
E|------0-----------------------------------------------------------|
B|------1-----------------------------------------------------------|
G|------2-----------------------------------------------------------|
D|------2----2-3------2-2-2--2----------------2-2-2--2--------------|
A|--0---------------0----------3-5-2-0------0----------3-5-2-0------|
E|--------------------------------------3-3--------------------3-3--|

E|-------------------------------------------|
B|-------------------------------------------|
G|-------------------------------------------|
D|---------------------2-------------0-2-----|
A|--0-3-2------0-3-2------0-3-2--------------|
E|--------3-0--------3----------3-0-------0--|

E|------------------------------------------------7--|
B|----------0--------3-0----------------0-----0-3----|
G|--------1---------------------1-----1-----1--------|
D|--0-2-3------0-2-3------0-2-3---2-3-----3----------|
A|---------------------------------------------------|
E|---------------------------------------------------|

E|----------------------------------------------------------------|
B|--10--10-10-10-10-10-8-10--10-10-10-10-10-8-10--10-10-10-10-10--|
G|----------------------------------------------------------------|
D|----------------------------------------------------------------|
A|----------------------------------------------------------------|
E|----------------------------------------------------------------|

E|---------------------------------------------------------------------|
B|-------------------------------------5--5-5-6-8-10--10-10-8-6-8-6-5--|
G|------------------------2----2-2-4-5---------------------------------|
D|--2-2-2--2-2-2--2-2-2-2---2------------------------------------------|
A|---------------------------------------------------------------------|
E|---------------------------------------------------------------------|

E|--------------------------------------------|
B|--5-3-3-5-6--6-3-1-1-3-5--5-1-0-0-1-3--6-5--|
G|--------------------------------------------|
D|--------------------------------------------|
A|--------------------------------------------|
E|--------------------------------------------|

E|------------------------------------------------------------------5-4--------5-4----|
B|-------------------------------------5--5-5-6-8-10--13-12-8--5-6------5--5-6-----5--|
G|------------------------2----2-2-4-5------------------------------------------------|
D|--2-2-2--2-2-2--2-2-2-2---2---------------------------------------------------------|
A|------------------------------------------------------------------------------------|
E|------------------------------------------------------------------------------------|

E|---------------------------------|
B|--1-3--6-5-1---------------------|
G|--------------2-4-1-4------------|
D|----------------------2---3---2--|
A|---------------------------------|
E|---------------------------------|

Se você perceber...após isso vem um longo trecho com 
violino (se não for violino me corrijam, pois eh o que eu acho q eh xD)
e depois repete o final...por isso parei aí...espero que eu tenha
ajudado os fãs de zelda que estavam afim de aprender a tocar essa
canção desse fabuloso jogo. xD Vlw...
Outros vídeos desta música
5.861 exibições
    • ½ Tom
    • A
    • Bb
    • B
    • C
    • Db
    • D
    • Eb
    • E
    • F
    • F#
    • G
    • Ab
  • Adicionar à lista

Afinação da cifra

Afinador online

    0 comentários

    Ver todos os comentários

    Entre para o Cifra Club PRO

    Tenha acesso a benefícios exclusivos no App e no Site

    • Chega de anúncios

    • Mais recursos no app do Afinador

    • Atendimento Prioritário

    • Aumente seu limite de lista

    • Ajude a produzir mais conteúdo

    Cifra Club Pro

    Aproveite o Cifra Club com benefícios exclusivos e sem anúncios
    Cifra Club Pro
    Aproveite o Cifra Club com benefícios exclusivos e sem anúncios
    OK