Cifra Club

Zelda 5 Oot - Court Yard

Zelda

Cifra: Principal (violão e guitarra)
Selo Cifra Club: esta cifra foi revisada para atender aos critérios oficiais da nossa Equipe de Qualidade.
tom: C
E |-----------------------|--2----3----0----0----|--11----12----8----8----|
B |---4----5--------------|--4----5--------------|--12----13--------------|
G |---4----5----5----5----|----------------------|--------------5----5----|
D |-----------------------|------------2----2----|------------------------|
A |-------------3----3----|----------------------|------------------------|
E |-----------------------|----------------------|------------------------|

|--14----15----------------|----------------------|--0----1--------------|
|--16----17----11----11----|----------------------|--1----3----1----1----|
|--------------------------|--1----2--------------|----------------------|
|---------------8-----8----|--2----3----3----3----|----------------------|
|--------------------------|----------------------|------------3----3----|
|--------------------------|------------1----1----|----------------------|

|--4----5--------------|--12----13----11----11----|--------------------------|
|--5----6----6----6----|--13----15----------------|--------------------------|
|----------------------|--------------------------|--------------------------|
|----------------------|--------------13----13----|--13----14----10----10----|
|------------8----8----|--------------------------|--14----15----------------|
|----------------------|--------------------------|---------------8-----8----|

|-------0----0----0----|--11----12----------------|--14----15----------------|
|--7----8--------------|--12----13----13----13----|--16----17----11----11----|
|--8-------------------|--------------------------|--------------------------|
|----------------------|--------------------------|---------------8-----8----|
|------------7----7----|--------------15----15----|--------------------------|
|----------------------|--------------------------|--------------------------|

|-------7----7----7----|--7---------7----7----|--7----7---------7-----|
|--8----8----8----8----|--8----6----6----6----|--6----5---------5-6---|
|----------------------|----------------------|------------7----------|
|--0-------------------|----------------------|-----------------------|
|----------------------|----------------------|-----------------------|
|----------------------|----------------------|-----------------------|

|--------------------|----------------5----|--5----5---------5----|
|-----------8--------|--7----6--------4----|--4----4----3---------|
|--7--------0--------|---------------------|-----------------5----|
|--------------------|---------------------|----------------------|
|--------------------|--9----8-------------|----------------------|
|--------------------|---------------------|----------------------|

|-------5--------------|---------------------|---------------------|
|-------4----3---------|--3-4----------------|--4----3-------------|
|--2--------------5----|--------5------------|------------5--------|
|----------------------|---------------------|-------0-------------|
|----------------------|---------------------|--6---------3--------|
|----------------------|---------------------|---------------------|

|--0-------------------|-------0----0---------|--0----0----0----0----|
|-------5----5----5----|--5-------------------|-----------------0----|
|--5----5----5----5----|--4----3----2---------|--1----2----3---------|
|----------------------|----------------------|----------------------|
|----------------------|----------------------|----------------------|
|----------------------|----------------------|----------------------|

|--0----0----0-----|
|--1----2----3-----|
|------------------|
|------------------|
|------------------|
|------------------|

Outros vídeos desta música
706 exibições
    • ½ Tom
    • A
    • Bb
    • B
    • C
    • Db
    • D
    • Eb
    • E
    • F
    • F#
    • G
    • Ab
  • Adicionar à lista

Afinação da cifra

Afinador online

    0 comentários

    Ver todos os comentários

    Entre para o Cifra Club PRO

    Tenha acesso a benefícios exclusivos no App e no Site

    • Chega de anúncios

    • Mais recursos no app do Afinador

    • Atendimento Prioritário

    • Aumente seu limite de lista

    • Ajude a produzir mais conteúdo

    Cifra Club Pro

    Aproveite o Cifra Club com benefícios exclusivos e sem anúncios
    Cifra Club Pro
    Aproveite o Cifra Club com benefícios exclusivos e sem anúncios
    OK