Cifra Club

Zelda 5 Oot - Saria's Song

Zelda

Cifra: Principal (violão e guitarra)
Selo Cifra Club: esta cifra foi revisada para atender aos critérios oficiais da nossa Equipe de Qualidade.
tom: D
(afinção 1/2 tom abaixo)

E |----------------------------------------------|
B |----------------------------------------------|
G |----------------------------------------------|
D |----11-13-----11-13-----11-13-----------------|
A |-12--------12--------12-----------------------|
E |----------------------------------------------|

E |----------------------------------------------|
B |----------------------------------------------|
G |13-12--10--9-10-9-------9---------------------|
D |-----------------10-------10h10h--------------|

(repete)

(essa parte necessida de muita técnica de slide)
E |---------------------------------------------------------------|
B |------------------------------------------------------------11-|
D |-9-10/-12-11-12/-14-13-14-10-----9-10/-12-11-12/-14-13-14------|
A |---------------------------------------------------------------|
E |---------------------------------------------------------------|

E |-----------------------------|
B |-----------------------------|
G |-----------------------------|
D |-9-10/-12-11-12/-14-13-14-10-|
A |-----------------------------|
E |-----------------------------|

(solo final)
E |-------------------------------------------------------------------------|
B |-----------------------------------------------20182018181918191819--21b-|
G |12---14-13-------15-14-14/--17--16-17/--20-18----------------------------|
D |-----------15-14---------------------------------------------------------|
Outros vídeos desta música
12.353 exibições
    • ½ Tom
    • A
    • Bb
    • B
    • C
    • Db
    • D
    • Eb
    • E
    • F
    • F#
    • G
    • Ab
  • Adicionar à lista

Afinação da cifra

Afinador online

    0 comentários

    Ver todos os comentários

    Entre para o Cifra Club PRO

    Tenha acesso a benefícios exclusivos no App e no Site

    • Chega de anúncios

    • Mais recursos no app do Afinador

    • Atendimento Prioritário

    • Aumente seu limite de lista

    • Ajude a produzir mais conteúdo

    Cifra Club Pro

    Aproveite o Cifra Club com benefícios exclusivos e sem anúncios
    Cifra Club Pro
    Aproveite o Cifra Club com benefícios exclusivos e sem anúncios
    OK