Cifra Club

Aprenda

Brain Shake

AC/DC

Tab de baixo: Principal
(intro)

G|-----------------|-----------------|-----------------|-----------------|
D|-----------------|-----------------|-----------------|-----------------|
A|-----------------|-----------------|-----------------|-----------------|
E|-----------------|-----------------|-----------------|-----------------|

                                                  G       Gb E D C B A
G|-----------------|-----------------|-----------------|-----------------|
D|-----------------|-----------------|-----------5-5-5-|-5-4-------------|
A|-----------------|-----------------|-----------------|-----7-5---------|
E|-----------------|-----------------|-----------------|---------8-7-5-5-|

(pre verse 1

     A                                           G        Db E D C B A 
G|-----------------|-----------------|-----------------|-----------------|
D|-----------------|-----------------|-----------5-5-5-|-5-4-------------|
A|-----------------|-----------------|-----------------|-----7-5---------|
E|---5-5-5-5-5-5-5-|---5-5-5-5-5-5-5-|---5-5-5-5-------|---------8-7-5-5-|

     A                                           G        Db E D C B A 
G|-----------------|-----------------|-----------------|-----------------|
D|-----------------|-----------------|-----------5-5-5-|-5-4-------------|
A|-----------------|-----------------|-----------------|-----7-5---------|
E|---5-5-5-5-5-5-5-|---5-5-5-5-5-5-5-|---5-5-5-5-------|---------8-7-5-5-|

(verse 1)

     A
G|-----------------|-----------------|-----------------|-----------------|
D|-----------------|-----------------|-----------------|-----------------|
A|-----------------|-----------------|-----------------|-----------------|
E|---5-5-5-5-5-5-5-|-5-5-5-5-5-5-5-5-|-5-5-5-5-5-5-5-5-|-5-5-5-5-5-5-5-5-|

   A
G|-----------------|-----------------|-----------------|-----------------|
D|-----------------|-----------------|-----------------|-----------------|
A|-----------------|-----------------|-----------------|-----------------|
E|-5-5-5-5-5-5-5-5-|-5-5-5-5-5-5-5-5-|-5-5-5-5-5-5-5-5-|-5-5-5-5-5-5-5-5-|

   A
G|-----------------|-----------------|-----------------|-----------------|
D|-----------------|-----------------|-----------------|-----------------|
A|-----------------|-----------------|-----------------|-----------------|
E|-5-5-5-5-5-5-5-5-|-5-5-5-5-5-3-4-5-|-5-5-5-5-5-5-5-5-|-5-5-5-5-5-5-5-5-|
                             
   A                                                              G F# E
G|-----------------|-----------------|-----------------|-----------------|
D|-----------------|-----------------|-----------------|-----------------|
A|-----------------|-----------------|-----------------|-----------------|
E|-5-5-5-5-5-5-5-5-|-5-5-5-5-5-5-5-5-|-5-5-5-5-5-5-5-5-|-5---5---0-3-2-0-|

(pre-chorus 1)
     E                                           
G|-----------------|-----------------|-----------------|-----------------|
D|-----------------|-----------------|-----------------|-----------------|
A|-----------------|-----------------|-----------------|-----------------|
E|---0-0-0-0-0-0-0-|-0-0-0-0-0-0-0-0-|-0-0-0-0-0-0-0-0-|-0-0-0-0-0-0-0-0-|

   E                                             D        Db B A G F#E A
G|-----------------|-----------------|-----------------|-----------------|
D|-----------------|-----------------|-----------------|-----------------|
A|-----------------|-----------------|-----------5-5-5-|-5-4-2-0---------|
E|-0-0-0-0-0-0-0-0-|-0-0-0-0-0-0-0-0-|-0-0-0-0-0-------|---------3-2-0-5-|

(chorus 1)
     A                                           G        Db E D C B A 
G|-----------------|-----------------|-----------------|-----------------|
D|-----------------|-----------------|-----------5-5-5-|-5-4-------------|
A|-----------------|-----------------|-----------------|-----7-5---------|
E|---5-5-5-5-5-5-5-|-5-5-5-5-5-5-5-5-|-5-5-5-5-5-------|---------8-7-5-5-|

     A                                           G        Db E D C B A 
G|-----------------|-----------------|-----------------|-----------------|
D|-----------------|-----------------|-----------5-5-5-|-5-4-------------|
A|-----------------|-----------------|-----------------|-----7-5---------|
E|---5-5-5-5-5-5-5-|-5-5-5-5-5-5-5-5-|-5-5-5-5-5-------|---------8-7-5-5-|

(verse 2)
     A
G|-----------------|-----------------|-----------------|-----------------|
D|-----------------|-----------------|-----------------|-----------------|
A|-----------------|-----------------|-----------------|-----------------|
E|---5-5-5-5-5-5-5-|-5-5-5-5-5-5-5-5-|-5-5-5-5-5-5-5-5-|-5-5-5-5-5-5-5-5-|

   A
G|-----------------|-----------------|-----------------|-----------------|
D|-----------------|-----------------|-----------------|-----------------|
A|-----------------|-----------------|-----------------|-----------------|
E|-5-5-5-5-5-5-5-5-|-5-5-5-5-5-5-5-5-|-5-5-5-5-5-5-5-5-|-5-5-5-5-5-5-5-5-|

   A
G|-----------------|-----------------|-----------------|-----------------|
D|-----------------|-----------------|-----------------|-----------------|
A|-----------------|-----------------|-----------------|-----------------|
E|-5-5-5-5-5-5-5-5-|-5-5-5-5-5-5-5-5-|-5-5-5-5-5-5-5-5-|-5-5-5-5-5-5-5-5-|

   A                                                                   E 
G|-----------------|-----------------|-----------------|-----------------|
D|-----------------|-----------------|-----------------|-----------------|
A|-----------------|-----------------|-----------------|-4-4-4-5-5-6-7---|
E|-5-5-5-5-5-5-5-5-|-5-5-5-5-5-5-5-5-|-5-5-5-5-5-5-5-5-|---------------0-|

(pre-chorus 2)
     E                                           
G|-----------------|-----------------|-----------------|-----------------|
D|-----------------|-----------------|-----------------|-----------------|
A|-----------------|-----------------|-----------------|-----------------|
E|---0-0-0-0-0-0-0-|-0-0-0-0-0-0-0-0-|-0-0-0-0-0-0-0-0-|-0-0-0-0-0-0-0-0-|

   E                                             D        Db B A G F#E A
G|-----------------|-----------------|-----------------|-----------------|
D|-----------------|-----------------|-----------------|-----------------|
A|-----------------|-----------------|-----------5-5-5-|-5-4-2-0---------|
E|-0-0-0-0-0-0-0-0-|-0-0-0-0-0-0-0-0-|-0-0-0-0-0-------|---------3-2-0-5-|

(chorus 2)
     A                                           G        Db E D C B A 
G|-----------------|-----------------|-----------------|-----------------|
D|-----------------|-----------------|-----------5-5-5-|-5-4-------------|
A|-----------------|-----------------|-----------------|-----7-5---------|
E|---5-5-5-5-5-5-5-|-5-5-5-5-5-5-5-5-|-5-5-5-5-5-------|---------8-7-5-5-|

     A                                           G        Db E D C B A 
G|-----------------|-----------------|-----------------|-----------------|
D|-----------------|-----------------|-----------5-5-5-|-5-4-------------|
A|-----------------|-----------------|-----------------|-----7-5---------|
E|---5-5-5-5-5-5-5-|-5-5-5-5-5-5-5-5-|-5-5-5-5-5-------|---------8-7-5-5-|

     A                                               G    Db E D C B A 
G|-----------------|-----------------|-----------------|-----------------|
D|-----------------|-----------------|---------------5-|-5-4-------------|
A|-----------------|-----------------|-----------------|-----7-5---------|
E|---5-5-5-5-5-5-5-|-5-5-5-5-5-5-5-5-|-5-5-5-5-5-5-5---|---------8-7-5-5-|

     A                                           G        Db E D C G F#E 
G|-----------------|-----------------|-----------------|-----------------|
D|-----------------|-----------------|-----------5-5-5-|-5-4-------------|
A|-----------------|-----------------|-----------------|-----7-5-3-------|
E|---5-5-5-5-5-5-5-|-5-5-5-5-5-5-5-5-|-5-5-5-5-5-------|-----------3-2-0-|

(pre solo)
     E                                           
G|-----------------|-----------------|-----------------|-----------------|
D|-----------------|-----------------|-----------------|-----------------|
A|-----------------|-----------------|-----------------|-----------------|
E|---0-0-0-0-0-0-0-|-0-0-0-0-0-0-0-0-|-0-0-0-0-0-0-0-0-|-0-0-0-0-0-0-0-0-|

   E                                             D        Db B A G F#E A
G|-----------------|-----------------|-----------------|-----------------|
D|-----------------|-----------------|-----------------|-----------------|
A|-----------------|---------------7-|---7-7-7-7-5-5-5-|-5-4-2-0---------|
E|-0-0-0-0-0-0-0-0-|-0-0-0-0-0-0-0---|-----------------|---------3-2-0-5-|

(guitar solo) 
     A
G|-----------------|-----------------|-----------------|-----------------|
D|-----------------|-----------------|-----------------|-----------------|
A|-----------------|-----------------|-----------------|-----------------|
E|---5-5-5-5-5-5-5-|-5-5-5-5-5-5-5-5-|-5-5-5-5-5-5-5-5-|-5-5-5-5-5-5-5-5-|

   A                                                             C  C# D
G|-----------------|-----------------|-----------------|-----------------|
D|-----------------|-----------------|-----------------|-----------------|
A|-----------------|-----------------|-----------------|---------3-3-4-5-|
E|-5-5-5-5-5-5-5-5-|-5-5-5-5-5-5-5-5-|-5-5-5-5-5-5-5-5-|-5-5-5-5---------|

     D                                                             
G|-----------------|-----------------|-----------------|-----------------|
D|-----------------|-----------------|-----------------|-----------------|
A|---5-5-5-5-5-5-5-|-5-5-5-5-5-5-5-5-|-5-5-5-5-5-5-5-5-|-5-5-5-5-5-------|
E|-----------------|-----------------|-----------------|-----------0-3-5-|

     A
G|-----------------|-----------------|-----------------|-----------------|
D|-----------------|-----------------|-----------------|-----------------|
A|-----------------|-----------------|-----------------|-----------------|
E|---5-5-5-5-5-5-5-|-5-5-5-5-5-5-5-5-|-5-5-5-5-5-5-5-5-|-5-5-5-5-5-3-2-0-|

                                   E                                   E
G|-----------------|-----------------|-----------------|-----------------|
D|-----------------|-----------------|-----------------|-----------------|
A|-----------------|-----------------|-----------------|-----------------|
E|-----------------|---------------0-|-----------------|---------------0-|

                                   E             D        Db B A G F#E A
G|-----------------|-----------------|-----------------|-----------------|
D|-----------------|-----------------|-----------------|-----------------|
A|-----------------|-----------------|-----------5-5-5-|-5-4-2-0---------|
E|-----------------|---------------0-|-----------------|---------3-2-0-5-|

(chorus 3)
     A                                           G        Db E D C B A 
G|-----------------|-----------------|-----------------|-----------------|
D|-----------------|-----------------|-----------5-5-5-|-5-4-------------|
A|-----------------|-----------------|-----------------|-----7-5---------|
E|---5-5-5-5-5-5-5-|-5-5-5-5-5-5-5-5-|-5-5-5-5-5-------|---------8-7-5-5-|

     A                                           G        Db E D C B A D
G|-----------------|-----------------|-----------------|-----------------|
D|-----------------|-----------------|-----------5-5-5-|-5-4-------------|
A|-----------------|-----------------|-----------------|-----7-5-------5-|
E|---5-5-5-5-5-5-5-|-5-5-5-5-5-5-5-5-|-5-5-5-5-5-------|---------8-7-5---|

     D                                           G        Db D E C B A 
G|-----------------|-----------------|-----------------|-----------------|
D|-----------------|-----------------|-----------5-5-5-|-5-4-------------|
A|---5-5-5-5-5-5-5-|-5-5-5-5-5-5-5-5-|-5-5-5-5-5-------|-----7-5---------|
E|-----------------|-----------------|-----------------|---------8-7-5-5-|

     A                                               G    Db E D C B A 
G|-----------------|-----------------|-----------------|-----------------|
D|-----------------|-----------------|---------------5-|-5-4-------------|
A|-----------------|-----------------|-----------------|-----7-5---------|
E|---5-5-5-5-5-5-5-|-5-5-5-5-5-5-5-5-|-5-5-5-5-5-5-5---|---------8-7-5-5-|

     A                                           G        Db E D C B A 
G|-----------------|-----------------|-----------------|-----------------|
D|-----------------|-----------------|-----------5-5-5-|-5-4-------------|
A|-----------------|-----------------|-----------------|-----7-5---------|
E|---5-5-5-5-5-5-5-|-5-5-5-5-5-5-5-5-|-5-5-5-5-5-------|---------8-7-5-5-|

     A                                           G        Db E D C B A 
G|-----------------|-----------------|-----------------|-----------------|
D|-----------------|-----------------|-----------5-5-5-|-5-4-------------|
A|-----------------|-----------------|-----------------|-----7-5---------|
E|---5-5-5-5-5-5-5-|-5-5-5-5-5-5-5-5-|-5-5-5-5-5-------|---------8-7-5-5-|

     A                                           G        Db E D C B A 
G|-----------------|-----------------|-----------------|-----------------|
D|-----------------|-----------------|-----------5-5-5-|-5-4-------------|
A|-----------------|-----------------|-----------------|-----7-5---------|
E|---5-5-5-5-5-5-5-|-5-5-5-5-5-3-4-5-|---5-5-5-5-------|---------8-7-5-5-|

     A                                           G        Db E D C B A 
G|-----------------|-----------------|-----------------|-----------------|
D|-----------------|-----------------|-----------5-5-5-|-5-4-------------|
A|-----------------|-----------------|-----------------|-----7-5---------|
E|---5-5-5-5-5-5-5-|-5-5-5-5-5-3-4-5-|-5-5-5-5-5-------|---------8-7-5-5-|

(outro)

     A       G        Db E D C B A               G        Db E D C B A 
G|-----------------|-----------------|-----------------|-----------------|
D|-----------5-5-5-|-5-4-------------|-----------5-5-5-|-5-4-------------|
A|-----------------|-----7-5---------|-----------------|-----7-5---------|
E|---5-5-5-5-------|---------8-7-5-5-|---5-5-5-5-------|---------8-7-5-5-|
 
       A     G        Db R D C B A
G|-----------------|-----------------|-----------------|-----------------|
D|-----------5-5-5-|-5-4-------------|-----------------|-----------------|
A|-----------------|-----7-5---------|-----------------|-----------------|
E|---0-5-5-5-------|---------8-7-5-5-|-----5-----5-----|-5---------------|

                                 A
G|-----------------|-----------------|
D|-----------------|-----------------|
A|-----------------|-----------------|
E|-----------------|-------------5---|
Composição de Angus Young / Brian Johnson
172 exibições

0 comentários

Mostrar mais comentários

Conseguiu tocar?

0 Tocaram 0 Ainda não

Grave um vídeo tocando Brain Shake e mande pra gente!

00:00 / 00:00
outros vídeos desta música
repetir qualidade Automático
Outros vídeos desta música
00:00 / 00:00
Automático
OK