Cifra Club

Aprenda

Highway To Hell

AC/DC

Cifra: Versão 5 (violão e guitarra)
Tom: D
Intro 2x:

E|------------------2---2---3----2--2----3---2--2--3----2-----------|
B|------------------3---3---3----3--3----3---3--3--3----3-----------|
G|------------------2---2--------2--2--------2--2-------2-----------|
D|-------2-2-2----------------------------------------------2-------|
A|-------0-0-0----------------------------------------------0-------|
E|--------------------------3------------3---------3----------------|

Verso:
E|------------------2---2---3----2--2----3---2--2--3----2-----------|
B|------------------3---3---3----3--3----3---3--3--3----3-----------|
G|------------------2---2--------2--2--------2--2-------2-----------|
D|-------2-2-2----------------------------------------------2-------|
A|-------0-0-0----------------------------------------------0-------|
E|--------------------------3------------3---------3----------------|

Pré-Refrão:

E|-----0-0-0-0-0-0-0-0-0-0-0-|

Refrão:
E|------------------2-2---------3------3--------------|
B|-------2---2------3-3---------3------3--------------|
G|-------2---2------2-2-------------------------------|
D|-------2---2----------------------------------------|
A|---------------------------------------------2-3-2--|
E|------------------------------3------3--------------|

(Verso)

(Refrão)

E|-----2--3--2---2--3--2--2--3--2|
B|-----3--3--3---3--3--3--3--3--3|
G|-----2--2--2---2--2--2--2--2--2|
D|-------------------------------|
A|-------------------------------|
E|-------------------------------|

Solo:
E|-----------------------------------------------------------5----------------------|
B|--------------5-5-5--------5-5-5------4-5-----------------5-----------------------|
G|----------7b--------7b------------7b--------8b-----4-2-0---5----------7-7--7b-----|
D|--------------------------------------------8b-----------------------------7b-----|
A|----------------------------------------------------------------------------------|
E|----------------------------------------------------------------------------------|

(Refrão 5x)
Composição de Angus Young / Bon Scott / Malcolm Young
Colaboração e revisão:
  • Felipe Araújo
  • Pedro
63.095 exibições
  • Simplificar cifra
    • ½ Tom
    • A
    • Bb
    • B
    • C
    • Db
    • D
    • Eb
    • E
    • F
    • F#
    • G
    • Ab
  • Adicionar à lista

    0 comentários

    Mostrar mais comentários
    00:00 / 00:00
    outros vídeos desta música
    repetir qualidade Automático
    Outros vídeos desta música
    00:00 / 00:00
    Automático
    Capítulos
    • Tocando a música
    • Dicas Iniciais / Equipamentos
    • Acordes da Introdução
    • Tocando a Introdução
    • Riff Principal
    • Acordes da Primeira Parte
    • Tocando a Primeira Parte
    • Primeira Parte
    • Acordes do Refrão
    • Tocando o Primeiro Refrão
    • Ritmo do Refrão
    • Acordes do Segundo Refrão
    • Tocando Segunda Parte - Solo
    • Ritmo do Segundo Refrão
    • Solo - Parte 1 de 3
    • Solo - Parte 2 de 3
    • Solo - Parte 3 de 3
    • Tocando o Final
    • Final - Lick 2
    • Final - Lick 1
    • Final - Lick 3
    • Final - Lick 4
    • Final - Lick 5
    • Final - Lick 6
    • Encerramento
    • Ficha Técnica
    OK