Cifra Club

Aprenda

Jailbreak

AC/DC

Tab de baixo: Principal
Introdução só guitarra

There was a friend of mine on murder...

Primeira parte

He said, I ain't spending my life here...

Parte 01 ( tocar 16x )

G|--------------------------------------------|
D|--------------------------------------------|
A|---------5-4--------------------------------|
E|-0-0-3-0------------------------------------|

Parte 02

But it was all in the name of liberty

G|--------------------------------------------|
D|--------------------------------------------|
A|--------------------------------------------|
E|-5--5-5-5-5--5--5-5-5-5--7--0-0-0-0--7------|

G|--------------------------------------------|
D|--------------------------------------------|
A|-5-5-5--5-----------------------------------|
E|--------------------------------------------|

Refrão

Jailbreak,i got to break out,Out of here...

Parte 01 ( Tocar 14x )

G|--------------------------------------------|
D|--------------------------------------------|
A|---------5-4--------------------------------|
E|-0-0-3-0------------------------------------|

Parte 02

G|--------------------------------------------|
D|--------------------------------------------|
A|---------5-4--------------------------------|
E|-0-0-3-0-----0------------------------------|

Segunda parte

He said, he'd seen his lady

Parte 01 ( tocar 16x )

G|--------------------------------------------|
D|--------------------------------------------|
A|---------5-4--------------------------------|
E|-0-0-3-0------------------------------------|

Parte 02

But it was all in the name of liberty

G|--------------------------------------------|
D|--------------------------------------------|
A|--------------------------------------------|
E|-5--5-5-5-5--5--5-5-5-5--7--0-0-0-0--7------|

G|--------------------------------------------|
D|--------------------------------------------|
A|-5-5-5--5-----------------------------------|
E|--------------------------------------------|

Refrão 2

Jailbreak,i got to break out,Out of here...

Parte 01 ( Tocar 7x )

G|--------------------------------------------|
D|--------------------------------------------|
A|---------5-4--------------------------------|
E|-0-0-3-0------------------------------------|

Parte 02

G|--------------------------------------------|
D|--------------------------------------------|
A|---------5----------------------------------|
E|-0-0-3-0---3--------------------------------|

Solo de guitarra

Parte 01

G|--------------------------------------------|
D|--------------------------------------------|
A|--------------------------------------------|
E|-5--5-5-5-5--5--5-5-5-5--7--0-0-0-0--7------|

G|--------------------------------------------|
D|--------------------------------------------|
A|-5-4-5-5------------------------------------|
E|--------------------------------------------|

Terceira parte

Heartbeats, they were racin...

Parte 01

G|--------------------------------------------|
D|--------------------------------------------|
A|--------------------------------------------|
E|-0-0-0-0--0-0-0-0--0-0-0-0--0-0-0-0---------|

G|--------------------------------------------|
D|--------------------------------------------|
A|--------------------------------------------|
E|-0-0-0-0--0-0-0-0--0-0-0-0--0-0-0-0---------|

G|--------------------------------------------|
D|--------------------------------------------|
A|--------------------------------------------|
E|-0-0----------------------------------------|

Refrão 3 Final c/ Fade Out

Jailbreak...

Parte 01 ( Tocar 32x )

G|--------------------------------------------|
D|--------------------------------------------|
A|---------5-4--------------------------------|
E|-0-0-3-0------------------------------------|
Composição de Angus Young / Bon Scott / Malcolm Young
Colaboração e revisão:
  • Reginaldo Costa
29.260 exibições

0 comentários

Mostrar mais comentários

Conseguiu tocar?

6 Tocaram 0 Ainda não

Grave um vídeo tocando Jailbreak e mande pra gente!

00:00 / 00:00
outros vídeos desta música
repetir qualidade Automático
Outros vídeos desta música
00:00 / 00:00
Automático
Capítulos
  • Tocando a Música
  • Dicas iniciais / Equipamentos
  • Primeira Parte - Parte 1 de 2
  • Primeira Parte - Parte 2 de 2
  • Refrão 1 - Parte 1 de 2
  • Refrão 1 - Parte 2 de 2
  • Dicas Refrão 2
  • Refrão 2 - Parte 1 de 2
  • Refrão 2 - Parte 2 de 2
  • Solo de Guitarra
  • Dicas Terceira parte
  • Terceira parte
  • Refrão 3 - Final
  • Encerramento
  • Ficha Técnica /Erros de Gravação
OK