Cifra Club

Aprenda

I Can´t Have You Blues

Alice In Chains

Cifra: Principal (violão e guitarra)
tom: F# (forma dos acordes no tom de G) Afinação: Eb Ab Db Gb Bb Eb
(intro)
E|------------------------------------------------------------|
B|------------------------------------------------------------|
G|------------------------------------------------------------|
D|------------------------------------------------------------|
A|------------------------------------------------------------|
E|------------------------------------------------------------|

E|2---------------------------2-------3p2----2----------------|
B|3--------2------------------3-----------3----3--------------|
G|2--------2------------------2------------------2------------|
D|0--------2------------------0-------------------------------|
A|---------0--------------------------------------------------|
E|------------------------------------------------------------|

(verse)
E|------------------------------------------------------------|
B|------------------------------------------------------------|
G|------------------------------------------------------------|
D|------------------------------------------------------------|
A|------------------------------------------------------------|
E|------------------------------------------------------------|

(verso)
E|------------------------------------------------------------|
B|------------------------------------------------------------|
G|-2-X------2-2---2-2------2-2--------------------------------|
D|-2-X------2-2---2-2------2-2--------------------------------|
A|-0-X-3h4--0-0---0-0-3h4--0-0--------------------------------|
E|------------------------------------------------------------|

E|------------------------------------------------------------|
B|------------------------------------------------------------|
G|-2-X------2-2---2-2------2-2--------------------------------|
D|-0-X-3h4--0-0---0-0-3h4--0-0--------------------------------|
A|------------------------------------------------------------|
E|------------------------------------------------------------|

(solo)
E|------------------------------------------------------------|
B|-12-12--12--12p10-10-10--8-8--7-7h8p7-----------------------|
G|--------------------------------------9b11-9b11-9b11r9p7----|
D|--------------------------------------------------------9p7-|
A|------------------------------------------------------------|
E|------------------------------------------------------------|

E|------------------------------------------------------------|
B|-----------12-12--12--12p10-10-10--8-8--7-7h8p7-------------|
G|------------------------------------------------9b11-9b11---|
D|-7-9-7-9p7--------------------------------------------------|
A|------------------------------------------------------------|
E|------------------------------------------------------------|

E|------------------------------------------------------------|
B|------------------------------------------------------------|
G|9b11r9p7----------------------------------------------------|
D|--------9p7-X\----------------------------------------------|
A|------------X\----------------------------------------------|
E|------------X\----------------------------------------------|
Colaboração e revisão:
  • daruan rodrigues
738 exibições
    • ½ Tom
    • A
    • Bb
    • B
    • C
    • Db
    • D
    • Eb
    • E
    • F
    • F#
    • G
    • Ab
  • Adicionar à lista

    0 comentários

    Ver todos os comentários

    Conseguiu tocar?

    0 Tocaram 0 Ainda não

    Grave um vídeo tocando I Can´t Have You Blues e nos envie!

    00:00 / 00:00
    outros vídeos desta música
    repetir qualidade Automático
    Outros vídeos desta música
    00:00 / 00:00
    Automático

    Cifra Club Pro

    Aproveite o Cifra Club com benefícios exclusivos e sem anúncios
    Cifra Club Pro
    Aproveite o Cifra Club com benefícios exclusivos e sem anúncios
    OK