Cifra Club

Wrecked Him

Angels & Airwaves

Cifra: Principal (violão e guitarra)
Tom: G
Ok, this is a demo AVA song i have to say, this "experimental" genre is so my
type of music, if u dont have this song email me - * -

INTRO
e|--------------------------------------------------|
B|--------------------------------------------------|
G|--------------------------------------------------|
D|--7--7--7--7---7--7--7--7-------------------------|x2
A|--x--x--x--x---x--x--x--x-------------------------|
E|--5--5--5--5---3--3--3--3-------------------------|

INTRO 2 (Guitar 1)
e|--------------------------------------------------|
B|--------------------------------------------------|
G|---7-7-7--6----6-6-6--7--x4-----------------------|
D|-7-----------5---------------4~~------------------|
A|--------------------------------------------------|
E|--------------------------------------------------|

INTRO 2 & VERSE 1 & 2 (Guitar 2)
e|--------------------------------------------------|
B|--------------------------------------------------|
G|-7-7-7-7------------------------------------------|
D|-7-7-7-7--5-5-5-5--7-7-7-7--5-5-5-5---------------|
A|-5-5-5-5--5-5-5-5--7-7-7-7--5-5-5-5---x2----------|
E|----------3-3-3-3--5-5-5-5--3-3-3-3---------------|

CHORUS (Guitar 1 & 2)
e|--------------------------------------------------|
B|--------------------------------------------------|
G|-7-7-7-7------------------------------------------|x2
D|-7-7-7-7--2-2-2-2--5-5-5-5--7-7-xxxx--------------|
A|-5-5-5-5--2-2-2-2--5-5-5-5--7-7-xxxx--------------|
E|----------0-0-0-0--3-3-3-3--5-5-xxxx--------------|

BRIDGE (After Bass) (Guitar 1)
e|--------------------------------------------------|
B|--------------------------------------------------|
G|-----------------------5p4h5----------------------|
D|-4-4-4-5-5-4-4-4-5-5-5----------------------------|
A|--------------------------------------------------|
E|--------------------------------------------------|
P.M.... ......,. . ..,...

TOM DELONGE IS THE COOLEST 


exibições 657
Acordes para:

    0 comentários

    mostrar mais comentários

    Conseguiu tocar?

    0 tocaram 0 ainda não

    Grave um vídeo tocando Wrecked Him e mande pra gente!

    00:00 / 00:00
    outros vídeos desta música
    repetir qualidade Automático
    Outros vídeos desta música
    00:00 / 00:00
    Automático
    OK