Cifra Club

Home Is Such A Lonely Place

blink-182

Cifra: Principal (violão e guitarra)
Tom: G
[Introdução e Verso:]

E|------------------------------------------|
B|------------------------------------------|
G|------------------------------------------|
D|---7--7------7--9-------7---------2-------|
A|-5------5/-7------7--------9---------5----|
E|----------------------7------7-\3-------3-|

We're falling faster than we can fly
Forgotten seconds out on Sunset Drive
And I hold on tight but not enough to hold you back


[Pré Refrão]

E|-----------------------------------------|
B|-----------------------------------------|
G|------------------------------2----------|
D|----------7------------2--2-----2---2----| (2X)
A|---7--7-----7---7-9----------------------|
E|-7------7-----7-----\3------3-----3------|

It feels like the moon
Is spinning off into outer space without you
This room is such a lonely place without you


E|------------------------------------------|
B|------------------------------------------|
G|------------------------------------------|
D|---7--7------7--9-------7---------2-------|
A|-5------5/-7------7--------9---------5----|
E|----------------------7------7-\3-------3-|

[Refrão:]

E|------------------------------------------------|
B|------------------------------------------------|
G|------------------------------------------------|
D|---7--7------7--7-----7--7-----7--7-------------|
A|-5------5--5------5-----------------------------|
E|--------------------5------5-5------5-----------|
                                                        (2X)
E|------------------------------------------------|
B|------------------------------------------------|
G|-----------------------2--2-----2--2------------|
D|----7--7-----7--7-------------------------------|
A|------------------------------------------------|
E|--7------7-7------7-\3------3-3------3----------|

I wish that we could save today
But I know we can't stay the same
And I keep pushing you away
Don't wait for me
Don't wait for me

E|-----------------------------------------|
B|-----------------------------------------|
G|---------------------2--2-----2--2-------|
D|---7--7-----7--7-------------------------| (2X)
A|-----------------------------------------|
E|-7------7-7------7-3------3-3------3-----|

Home is such a lonely place without you
Home is such a lonely place


[Introdução e Verso 2:]

E|------------------------------------------|
B|------------------------------------------|
G|------------------------------------------|
D|---7--7------7--9-------7---------2-------|
A|-5------5/-7------7--------9---------5----|
E|----------------------7------7-\3-------3-|

I love the lightning but hate the rain
Tomorrows frightening but not today
Wish I could slow down time but not enough to slow you down


[Pré Refrão]

E|-----------------------------------------|
B|-----------------------------------------|
G|------------------------------2----------|
D|----------7------------2--2-----2---2----| (2X)
A|---7--7-----7---7-9----------------------|
E|-7------7-----7-----\3------3-----3------|

It feels like the moon
Is spinning off into outer space without you
The universe an empty place without you

[Refrão:]

E|------------------------------------------------|
B|------------------------------------------------|
G|------------------------------------------------|
D|---7--7------7--7-----7--7-----7--7-------------|
A|-5------5--5------5-----------------------------|
E|--------------------5------5-5------5-----------|
                                                       (2X)
E|------------------------------------------------|
B|------------------------------------------------|
G|-----------------------2--2-----2--2------------|
D|----7--7-----7--7-------------------------------|
A|------------------------------------------------|
E|--7------7-7------7-\3------3-3------3----------|

I wish that we could save today
But I know we can't stay the same
And I keep pushing you away
Don't wait for me
Don't wait for me

E|-----------------------------------------|
B|-----------------------------------------|
G|---------------------2--2-----2--2-------|
D|---7--7-----7--7-------------------------| (2X)
A|-----------------------------------------|
E|-7------7-7------7-3------3-3------3-----|

Home is such a lonely place without you
Home is such a lonely place

E|------------------------------------------|
B|------------------------------------------|
G|------------------------------------------|
D|---7--7------7--9-------7---------2-------| (2X)
A|-5------5/-7------7--------9---------5----|
E|----------------------7------7-\3-------3-|

[Verso 3]

E|------------------------------------------|
B|------------------------------------------|
G|------------------------------------------|
D|---7--7------7--9-------7---------2-------| (2X)
A|-5------5/-7------7--------9---------5----|
E|----------------------7------7-\3-------3-|

E|-------------------------------------------------------------|
B|-------------------------------------------------------------|
G|-------------------------------------------------------------|
D|---7--7------7--9-------7---------2---------2---------2------|
A|-5------5/-7------7--------9---------5---------5---------5---|
E|----------------------7------7-\3-------3-3-------3-3------3-|

We're falling faster than we can fly
Forgotten seconds out on Sunset Drive


E|-------|
B|-------|
G|-------|
D|-7~~~~-| (Deixe Soar)
A|-5~~~~-|
E|-------|

I wish that we could save today
But I know we can't stay the same
And I keep pushing you away
Don't wait for me
Don't wait for me

[Refrão:]

E|------------------------------------------------|
B|------------------------------------------------|
G|------------------------------------------------|
D|---7--7------7--7-----7--7-----7--7-------------|
A|-5------5--5------5-----------------------------|
E|--------------------5------5-5------5-----------|
                                                        (2X)
E|------------------------------------------------|
B|------------------------------------------------|
G|-----------------------2--2-----2--2------------|
D|----7--7-----7--7-------------------------------|
A|------------------------------------------------|
E|--7------7-7------7-\3------3-3------3----------|

I wish that we could save today
But I know we can't stay the same
And I keep pushing you away
Don't wait for me
Don't wait for me

E|-----------------------------------------|
B|-----------------------------------------|
G|---------------------2--2-----2--2-------|
D|---7--7-----7--7-------------------------| (2X)
A|-----------------------------------------|
E|-7------7-7------7-3------3-3------3-----|

Home is such a lonely place without you
Home is such a lonely place

[Final]

E|----------|
B|----------|
G|----------|
D|---7--7---|  (8X)
A|-5------5-|
E|----------|

E|----------|
B|----------|
G|----------|
D|-7~~~~----|
A|-5~~~~----|
E|----------|
exibições 4.727
Acordes para:
    Composição: Barker / Feldmann / Hodges / Hoppus / Skiba Colaboração e revisão:
    • Renan Luiz

    0 comentários

    mostrar mais comentários

    Conseguiu tocar?

    1 tocaram 0 ainda não

    Grave um vídeo tocando Home Is Such A Lonely Place e mande pra gente!

    00:00 / 00:00
    outros vídeos desta música
    repetir qualidade Automático
    Outros vídeos desta música
    00:00 / 00:00
    Automático
    OK