Cifra Club

Aprenda

Home Is Such A Lonely Place

Blink-182

Tab de baixo: Principal
Pré-Refrão:

It feels like the moon...

G|----------------------------------------------------------------------------|
D|----------------------------------------------------------------------------|
A|--------------------------2~~-----2~~-----2~~-----2~~------5~~-7~~-----10~~-|
E|------------------------------3~~-----3~~-----3~~-----3~~----------7~~------|

Refrão:

I wish that we could save today...

G|--------------------------------------------|
D|--------------------------------------------|
A|-5---5-5--5---------------------------------| x2
E|-----------7---7-7--7-9---9-9--9-3---3-3--3-|

Home is such a lonely place without you...

G|-----------------------------------------|
D|-----------------------------------------|
A|-2---2-2--2----------2---2-2--2----------|
E|-----------3---3-3--3----------3---3-3—3-|

G|---------------------------|
D|---------------------------|
A|--5~~-7~~-----10~~---------| x2
E|----------7~~--------------|

Verso 2:

I love the lightning...

G|--------------------------|
D|--------------------------|
A|--5~~-7~~-----10~~--------| x4
E|----------7~~-------------|

Pré-Refrão:

It feels like the moon...

G|----------------------------------------------------------|
D|----------------------------------------------------------|
A|--------------------------2~~-----2~~-----2~~-----2~~-----|
E|------------------------------3~~-----3~~-----3~~-----3~~-|

Refrão:

I wish that we could save today...

G|--------------------------------------------|
D|--------------------------------------------|
A|-5---5-5--5---------------------------------| x2
E|-----------7---7-7--7-9---9-9--9-3---3-3--3-|

Home is such a lonely place without you...

G|-----------------------------------------|
D|-----------------------------------------|
A|-2---2-2--2----------2---2-2--2----------|
E|-----------3---3-3--3----------3---3-3—3-|

Ponte: Só Violão.

We're falling faster than we can fly
Forgotten seconds out on Sunset Drive

Refrão: Só Violão.

I wish that we could save today
But I know we can't stay the same
And I keep pushing you away
Don't wait for me
Don't wait for me


Refrão Final:

I wish that we could save today...

G|--------------------------------------------|
D|--------------------------------------------|
A|-5---5-5--5---------------------------------| x2
E|-----------7---7-7--7-9---9-9--9-3---3-3--3-|

Home is such a lonely place without you...

G|-----------------------------------------------------|
D|-----------------------------------------------------|
A|-2---2-2--2/10---10-10--10-2---2-2—2/10---10-10h12---|
E|--------------------------------------------------10-|

G|---7-----7-----7-----7~~~~-|
D|---7-----7-----7-----7~~~~-|
A|-5-5---5-5---5-5---5-5~~~~-|
E|---------------------------|
Composição de Barker / Feldmann / Hodges / Hoppus / Skiba
Colaboração e revisão:
  • Vinicius Uzêda
104 exibições

0 comentários

Mostrar mais comentários

Conseguiu tocar?

0 Tocaram 0 Ainda não

Grave um vídeo tocando Home Is Such A Lonely Place e mande pra gente!

00:00 / 00:00
outros vídeos desta música
repetir qualidade Automático
Outros vídeos desta música
00:00 / 00:00
Automático

Cifra Club Pro

Aproveite o Cifra Club com benefícios exclusivos e sem anúncios
7 dias grátis
Cifra Club Pro
Aproveite o Cifra Club com benefícios exclusivos e sem anúncios
7 dias grátis
OK