Cifra Club

Stockholm Syndrome

blink-182

Cifra: Principal (violão e guitarra)
Selo Cifra Club: esta cifra foi revisada para atender aos critérios oficiais da nossa Equipe de Qualidade.
tom: E
[Intro]

[Parte 01 De 02]

   E5       C5/G             G/B       A5
E|---------------------------------------------------------|
B|-------------------------------------------------------0-|
G|----------5-5-5-5----4~~~--4-4-4-4------------7^0--0-0---|
D|-2-2-2-2--5-5-5-5--5~~~~~--5-5-5-5---7-7-7-7-------------|
A|-2-2-2-2--3-3-3-3----------2-2-2-2---7-7-7-7-------------|
E|-0-0-0-0--3-3-3-3--------------------5-5-5-5-------------|

[Parte 02 De 02]

   E5                           C5/G
E|---------------------------------------------------------|
B|-------------------------12*-------------------------12*-|
G|-----------12*---12*----------5-5-5-5---12*---12*--------|
D|-2-2-2-2-------------12*------5-5-5-5-------------12*----|
A|-2-2-2-2----------------------3-3-3-3--------------------|
E|-0-0-0-0----------------------3-3-3-3--------------------|

   G/B                          A5            C5/G
E|---------------------------------------------------------|
B|-------------------------12*-----------------------------|
G|-4-4-4-4---12*---12*-------------------12*--5-5-5-5-5-5--|
D|-5-5-5-5-------------12*------7-7-7-7-------5-5-5-5-5-5--|
A|-2-2-2-2----------------------7-7-7-7-------3-3-3-3-3-3--|
E|------------------------------5-5-5-5-------3-3-3-3-3-3--|

[Refrão]

            E5
This is the first
(thing I remember)
             C5
Now it's the last
(thing left on my mind)
              G5
Afraid of the dark
(do you hear me whisper)
         A5
An empty heart
               D/F#
(replaced with paranoia)

            E5
Where do we go
(life's temporary)
            C5
After we're gone
(like new years resolutions)
            G5
Why is this hard
(do you recognize me)
           A5
I know I'm wrong
             D/F#
(but I can't help believing)

[Interlúdio]

[Parte 01 De 02]2X

   E5                     C5
E|----3--5--7--3---3-2-------------------------------------|
B|---------------------------------------------------------|
G|---------------------------------------------------------|
D|------------------------5-5-5-5-5--4--5---5-5-5-5-5-5----|
A|-2----------------------x-x-x-x-x--x--x---x-x-x-x-x-x--0-|
E|-0----------------------3-3-3-3-3--2--3---3-3-3-3-3-3--0-|

[Parte 02 De 02]2X

   E5                            C5
E|---------------------------------------------------------|
B|---------------------------------------------------------|
G|---------------------------------------------------------|
D|-5----7----9----5--5-5-5-4-4---5-5-5-4-4-5---5-5-5-5-5-5-|
A|-x----x----x----x--x-x-x-x-x---x-x-x-x-x-x---x-x-x-x-x-x-|
E|-3--0h5--0h7--0h3--3-3-3-2-2---3-3-3-2-2-3---3-3-3-3-3-3-|

[Instrumental]

E|---------------------------------------------------------|
B|---------------------------------------------------------|
G|---------------------------------------------------------|
D|---------------------------------------------------------|
A|---------------------------------------------------------|
E|-7-7-7-7-7-7-7-7-7-7--8-8-7--7-8-8-8-8-8-8-8-8-8-8-8-8-8-|
  Pm

E|---------------------------------------------------------|
B|---------------------------------------------------------|
G|---------------------------------------------------------|
D|---------------------------------------------------------|
A|---------------------------------------------------------|
E|-7-7-7-7-7-7-7-7-7-7-7-7--5-5-5-5-5-5-5--3-3-3-3-3-3-3-3-|
  Pm

[Primeira Parte]

 E5
  I'm so lost
C5
  I'm barely here
G5
  I wish I could
  A5
Explain myself
    D/F#
But words escape me

E5
  It's too late
C5
  To save me
G5
  You're too late, you're too late

[Pré-Refrão]

   G/B                       C5
E|---------------------------------------------------------|
B|---------------------------------------------------------|
G|---------------------------------------------------------|
D|-5---5-5-5-5--5-5-5-5-5-5--5-5-5-5-5-5--5-5-5-5-5-5-5-5--|
A|-2---2-2-2-2--2-2-2-2-2-2--3-3-3-3-3-3--3-3-3-3-3-3-3-0--|
E|---------------------------------------------------------|

   G/B                    A5               C5 
E|---------------------------------------------------------|
B|---------------------------------------------------------|
G|---------------------------------------------------------|
D|-5-5-5-5-5-5-5-5-5-5----7-7-7-7-7-7-7-7--5-5-5-5-5-5-5---|
A|-2-2-2-2-2-2-2-2-2-2-0--x-x-x-x-x-x-x-x--x-x-x-x-x-x-x---|
E|------------------------0-5-5-5-5-5-5-5--3-3-3-3-3-3-3-0-|

G/B
  You're cold with
     C5
Disappointment, while I'm drowning
       G/B
In the next room
                    A5
The last contagious victim
        C5
Of this plague between us

G/B                  C5
  I'm sick with apprehension
                    G/B
I'm crippled from exhaustion
                       A5
And I dread the moment when
            C5
You finally come to kill me

[Refrão]

            E5
This is the first
(thing I remember)
             C5
Now it's the last
(thing left on my mind)
              G5
Afraid of the dark
(do you hear me whisper)
         A5
An empty heart
               D/F#
(replaced with paranoia)

            E5
Where do we go
(life's temporary)
            C5
After we're gone
(like new years resolutions)
            G5
Why is this hard
(do you recognize me)
           A5
I know I'm wrong
             D/F#
(but I can't help believing)

[Final] E5
Outros vídeos desta música
    23.519 exibições
      • ½ Tom
      • A
      • Bb
      • B
      • C
      • Db
      • D
      • Eb
      • E
      • F
      • F#
      • G
      • Ab
    • Adicionar à lista

    Afinação da cifra

    Afinador online

      0 comentários

      Ver todos os comentários

      Entre para o Cifra Club PRO

      Tenha acesso a benefícios exclusivos no App e no Site

      • Chega de anúncios

      • Mais recursos no app do Afinador

      • Atendimento Prioritário

      • Aumente seu limite de lista

      • Ajude a produzir mais conteúdo

      Cifra Club Pro

      Aproveite o Cifra Club com benefícios exclusivos e sem anúncios
      Cifra Club Pro
      Aproveite o Cifra Club com benefícios exclusivos e sem anúncios
      OK