Cifra Club

Aprenda

You Cant Blame The Youth

Bob Marley

Tab de baixo: Principal
 INTRO
G ||-----------------------------------------------|| 
D ||-----------------------------------------------|| 
A ||---------5----3-5-----------5----3-------------||  X2
E ||-O--3h5-----------------3h5--------5-----------|| 


 VERSE and CHORUS
G ||--------------------------|--------------------------------|| 
D ||---4--------5-----7-------|-------4--------2---------------|| 
A ||-5------O-5---------5-----|----5-------O-5---4-----O-5--5--|| 
E ||--------------------------|--------------------------------||

Variation:
G ||--------------7--------------------------------------------|| 
D ||----4-------5----5--O------------4--------2----------------|| 
A ||-5-----O-5-------------------5-5------O-5---4------O-5--5--|| 
E ||-----------------------------------------------------------|| 

G ||---------4---7-----|-----------------------|| 
D ||-----4-7------7----|----4-7-5--------------|| 
A ||---55--------------|--55------5----O-5-5---|| 
E ||-------------------|-----------------------||


G ||---------4---7-----|-----------------------|| 
D ||-----4-7------7----|----4-7-5--------------|| 
A ||----5--------------|--55------7----O-5-5---|| 
E ||-------------------|-----------------------||
Composição de Peter Tosh
Colaboração e revisão:
  • Pedro
4.680 exibições

0 comentários

Mostrar mais comentários

Conseguiu tocar?

0 Tocaram 0 Ainda não

Grave um vídeo tocando You Cant Blame The Youth e mande pra gente!

00:00 / 00:00
outros vídeos desta música
repetir qualidade Automático
Outros vídeos desta música
00:00 / 00:00
Automático

Cifra Club Pro

Aproveite o Cifra Club com benefícios exclusivos e sem anúncios
7 dias grátis
Cifra Club Pro
Aproveite o Cifra Club com benefícios exclusivos e sem anúncios
7 dias grátis
OK