Cifra Club

Fruto Especial

Bruno e Marrone

Cifra: Versão 3 (violão e guitarra)
tom: A
E|---4-4h5-------|-5-5-4-4-2-0----2-2h4---|-4-4-2-0-------------|
B|-2--------2----|-------------4--------0-|----------4-2-0-2----|
G|---------------|------------------------|---------------------|
D|---------------|------------------------|---------------------|
A|---------------|------------------------|---------------------|
E|---------------|------------------------|---------------------|

E|---------------|------------2-4---------|-2-0-----0-2-0-------|
B|----------2----|------2-4-5-------------|-------4-------------|
G|---2--4--------|--2-4-------------------|---------------------|
D|---------------|------------------------|---------------------|
A|---------------|------------------------|---------------------|
E|---------------|------------------------|---------------------|

A                 D     E                  A
Gosto quando sua mão,   vem passear no meu corpo
F#m               Bm                   E7                        A   D  A
  Atrevida me assanha, me atiça me arranha, me deixando quase louco
                    D    E                      A
Gosto quando seu olhar,  quer te ver dentro do meu
F#m               Bm                      E7                      A
  Minha pupila dilata, num segundo ela relata, que o meu amor é seu
            D               E                 A              F#m
Só sei que você faz, de um jeito assim, que alguém jamais, tirou de mim
   D                   E7                        A
O puro mel, que eu guardei para adoçar o fruto especial
            D         E              A              F#m
Só sei que você dá, tudo que tem, igual a você, não há ninguém
   Bm                E7                              A
Um alto astral, te amar é um bem que apaga qualquer mal
00:00 / 00:00
Outros vídeos desta música
Repetir
Outros vídeos desta música
Composição de Fátima Leão / Joao Rampani
Colaboração e revisão:
  • Alexandre
24.586 exibições
  • Simplificar cifra
    • ½ Tom
    • A
    • Bb
    • B
    • C
    • Db
    • D
    • Eb
    • E
    • F
    • F#
    • G
    • Ab
  • Adicionar à lista

    0 comentários

    Ver todos os comentários

    Entre para oCifra Club PRO

    Tenha acesso a benefícios exclusivos no App e no Site

    • Chega de anúncios

    • Prioridade de compra em lançamentos

    • Mais recursos no app do Afinador

    • Atendimento Prioritário

    • Descontos nos produtos Cifra Club

    • Ajude a produzir mais conteúdo

    00:00 / 00:00

    Cifra Club Pro

    Aproveite o Cifra Club com benefícios exclusivos e sem anúncios
    Cifra Club Pro
    Aproveite o Cifra Club com benefícios exclusivos e sem anúncios
    OK