Cifra Club

Céu Azul

Charlie Brown Jr.

Tab de baixo: Versão 2
G|-----------------------------------------------------------------------------------------|
D|-----------------------------------------------------------------------11----------------|
A|------9-9---9---7-7-6-7-----11--11--------6-7-9-9----9--7-7-6-7----9H11----11-9----------|
E|-2-2/9---9---9--------7/9-9--9---7-0-7-7---------9--9----------9--9------------7--7[6x]--|

G|--------------------------------------------------------------------------------------|
D|-----------------------------------------------------9--9---7-7-6H7-6--6--------------|
A|------9--9--9-------------------------------------7H9--9--9-----------9--9-7-9-7------|
E|-2-2-9----9---9-9/11-12-12--14--14-16\7--7-7--7-7--------------------------------7\2--|

G|-----------------------------------------------------------------------------------------------|
D|------------------------------------------------------------------9--9---7-7-6h7-6--6----------|
A|-------9p7-9--9-----9------------------------------------------7h9--9--9----------9--9-7-9-7---|
E|-2-2--9---------9-9---9-9/11--12-12--14--14--14-16\7--7-7--7-7-------------------------------7-|

G|------------------------------------------------------------------------------------------------|
D|-------------------------------------------------9/11-9--------9/11-11/14p13-11-9-11-9-9h11-----|
A|-9-9---9--7-7-6-7------11--11------------6-7-9-9--------7--7-9------------------------------11--|
E|-----9------------7/9-9--9----7-7--0-7-7-----------------7------------------------------------9-|

G|------------------------------------------------------------------------------------------------|
D|-------------------------------------------------9h11-9---------------------11------------------|
A|-9-9--9---7--7-6-7------11---11----------6-7-9-9--------9-7--7-6-7-----9h11----11-9-------------|
E|----9--9-----------7/9-9---9----7--0-7-7---------------------------7-9-------------7--7[6x]-----|

G|------------------------------------------------------------------------------------------------|
D|------------------------------------------------------9--9--7-7-6h7-6--6------------------------|
A|--------9-9--9-9-----------------------------------7h9-9--9-----------9--9-7-97-----------------|
E|-2-2--9----9-----9-9-9/11--12-12-14-16-\7--7-7--7-7------------------------------7\2------------|

G|------------------------------------------------------------------------------------------------|
D|-----------------------------------------------------9-9\11-9---7-7-6h7-6--6--------------------|
A|-------9--9---9----------------------------------7h9----------9-----------9--9-7-9-7------------|
E|-2-2--9----9-9--9-9/11-12-12-14-14-16/7--7-7--7-7------------------------------------7----------|

G|---------------------------------------------------------------------------------------------------|
D|-------------------------------------------------9/11-9--------9/11-11/14p13-11-9-11-9-11----------|
A|-9-9--9---7--7-6-7------11---11----------6-7-9-9--------7--7-9-------------------------------6-7---|
E|----9--9-----------7/9-9---9----7--0-7-7-----------------7---------------------------------7-------|

G|-------------------------------------------------------------------------------------------------------|
D|----------------------------------------------------------------9--11-11/14p13-11-9-11-9-11------------|
A|-9-9--9---7--7-6-7------11---11----------6-7-9-9---9---7--6-7-9-----------------------------6-7-8-9----|
E|----9--9-----------7/9-9---9----7--0-7-7---------9---9---------------------------------------------2---|
exibições 3.703
Composição: Chorão / Thiago Castanho Colaboração e revisão:
  • Willian santos

0 comentários

mostrar mais comentários
00:00 / 00:00
outros vídeos desta música
repetir qualidade Automático
Outros vídeos desta música
00:00 / 00:00
Automático
OK