Cifra Club

Aprenda

Galopeira

Chitãozinho & Xororó

Cifra: Aula-completa (violão e guitarra)
tom: G
[Intro] D  G  D  G 
        D  G  D  G 

Parte 1 de 4
E|-----------------------------------------------------|
B|-0-1-3--5-5-3-1-1----0-1--3-3-1-0-0------------------|
G|-0-2-4--5-5-4-2-2--2-0-2--4-4-2-0-0------------------|
D|-------------------4---------------------------------|
A|-----------------------------------------------------|
E|-----------------------------------------------------|

Parte 2 de 4
E|-----------------------------------------------------|
B|-0-1-3--5-5-3-7-7--5-5--3-3--1-0-3-------------------|
G|-0-2-4--5-5-4-7-7--5-5--4-4--2-0-4-------------------|
D|-----------------------------------------------------|
A|-----------------------------------------------------|
E|-----------------------------------------------------|
                                             
Parte 3 de 4

E|-7--8-10--12-12-10--8--8--5-7--8--10-10--8-7-7-------|
B|-8-10-12--13-13-12-10-10--7-8-10--12-12-10-8-8-------|
G|-----------------------------------------------------|
D|-----------------------------------------------------|
A|-----------------------------------------------------|
E|-----------------------------------------------------|

Parte 4 de 4

E|-7--8-10--12-10-12--14-14--12-12--10-10---8--8--7----|
B|-8-10-12--13-12-13--15-15--13-13--12-12--10-10--8----|
G|-----------------------------------------------------|
D|-----------------------------------------------------|
A|-----------------------------------------------------|
E|-----------------------------------------------------|

[Primeira parte]

G
  Foi num baile em Assunción

Capital do Paraguai

Onde eu vi as paraguaias
                  D
Sorridentes a bailar

[Segunda parte]

      C
E ao som de suas guitarras
         D          G
Quatro guapos a cantar
                D
Galopeira, galopeira
                       G
Eu também entrei a dançar

[Primeira parte]

G
  Foi num baile em Assunción

Capital do Paraguai

Onde eu vi as paraguaias
                  D
Sorridentes a bailar

[Segunda parte]

      C
E ao som de suas guitarras
         D          G
Quatro guapos a cantar
                D
Galopeira, galopeira
                       G   G  D/F#  Em
Eu também entrei a dançar

[Refrão]

     D
Galopeeeeeeeeeeeira
                      Em
Nunca mais te esquecereeeeeeeeei
     D
Galopeeeeeeeeeeira
       C      D     G
Pra matar minha saudade
                 D
Pra minha felicidade
                   G
Paraguai, eu voltarei
                 D
Pra minha felicidade
                   G
Paraguai, eu voltarei

( D  G  D  G )
( D  G  D  G )

( G  D/F#  Em )

[Refrão]

     D
Galopeeeeeeeeeeeira
                      Em
Nunca mais te esquecereeeeeeeeei
     D
Galopeeeeeeeeeeira
       C      D     G
Pra matar minha saudade
                 D
Pra minha felicidade
                   G
Paraguai, eu voltarei
                 D
Pra minha felicidade
                   G  D  G ( G  D  G )
Paraguai, eu voltare__e__ei
Composição de Cardoso O. Campo / Maurício Zayas / vrs: Pedro Bento
Colaboração e revisão:
  • Caico Antunes
60 exibições
    • ½ Tom
    • A
    • Bb
    • B
    • C
    • Db
    • D
    • Eb
    • E
    • F
    • F#
    • G
    • Ab
  • Adicionar à lista

    0 comentários

    Ver todos os comentários
    00:00 / 00:00
    outros vídeos desta música
    repetir qualidade Automático
    Outros vídeos desta música
    00:00 / 00:00
    Automático
    Capítulos
    • Tocando a Música
    • Apresentação / Equipamentos
    • Acordes da Introdução
    • Tocando Introdução
    • Ensinando Ritmo da Música
    • Dicas Primeira Parte
    • Tocando Primeira Parte
    • Acorde Segunda Parte
    • Tocando Segunda Parte
    • Ritmo Segunda Parte
    • Dicas Repetições
    • Acordes Passagem Segunda Parte
    • Tocando Segunda Parte (Variação)
    • Ensinando Ritmo Segunda Parte (Variação)
    • Tocando Refrão
    • Ritmo Refrão
    • Dicas Repetições
    • Tocando Repetições
    • Tocando Solo
    • Ensinando Solo - Tocando Devagar
    • Ensinando Solo - Parte 1 de 4
    • Ensinando Solo - Parte 2 de 4
    • Ensinando Solo - Parte 3 de 4
    • Ensinando Solo - Parte 4 de 4
    • Encerramento

    Cifra Club Pro

    Aproveite o Cifra Club com benefícios exclusivos e sem anúncios
    Cifra Club Pro
    Aproveite o Cifra Club com benefícios exclusivos e sem anúncios
    OK