Cifra Club

Aprenda

Tupamaru

Dead Fish

Tab de baixo: Principal
(riff 1 - 2x)

G|----------6----6--6----6|
D|----1h4---6----6--6----6|
A|2h4-----4----3----------|
E|----------------2----2--|

(riff 2)
G|----------------------|
D|----------------------|
A|6-4---2-6-4------2-4-6|
E|----2-------2--4------|

(riff 3)
G|----------------------------|
D|----------------------------|
A|66-888-999-11-11-11-66---2-4|
E|-----------------------7----|

(riff 4)
G|-------------------------------------|
D|--6/9-8-6-8-------6/9-8-6-8-------2-4|
A|2-----------4-1-2-----------4-1-2----|
E|-------------------------------------|

(riff 5)
G|-------|
D|-------|
A|6-4---2|
E|----2--|

(riff 6)
G|---------|
D|---------|
A|2-4-5-6-4|
E|---------|

(riff 7 - 2x)
G|---------|
D|---------|
A|6-4-----2|
E|----2-2--|

(riff 8)
G|-----|
D|-----|
A|6-4-2|
E|-----|
2.895 exibições

0 comentários

Mostrar mais comentários

Conseguiu tocar?

0 Tocaram 2 Ainda não

Grave um vídeo tocando Tupamaru e mande pra gente!

00:00 / 00:00
outros vídeos desta música
repetir qualidade Automático
Outros vídeos desta música
00:00 / 00:00
Automático

Cifra Club Pro

Aproveite o Cifra Club com benefícios exclusivos e sem anúncios
Cifra Club Pro
Aproveite o Cifra Club com benefícios exclusivos e sem anúncios
OK