Cifra Club

High 'N' Dry (Saturday Night)

Def Leppard

Cifra: Principal (violão e guitarra)
exibições 80
Tom: E
Guitar - left

      H        Q    E  E     E  E  H         E  E     E  E  E  E  E  E  E  E
E|----------------------|------------------------|--------------------------|
B|-------------------5--|--5--7--7~-----------8--|-----------------5-----5--|
G|-------------------5--|--5--7--7~-----------7--|-----7-----8-----5-----5--|
D|----------------------|------------------------|-----8-----8--------------|
A|----------------------|------------------------|--------------------------|
E|----------------------|------------------------|--------------------------|


   E  E  H         E  E     E  E  E  E  Q     E  E     E  E  H         E  E
------------------------|--------------------------|------------------------|
--5--7--7~-----------8--|-----------------------5--|--5--7--7~-----------8--|
--5--7--7~-----------7--|-----7-----8--8~-------5--|--5--7--7~-----------7--|
------------------------|-----8-----8--8~----------|------------------------|
------------------------|--------------------------|------------------------|
------------------------|--------------------------|------------------------|


   E  E  E  E  E  E  E  E     E  E  H         E  E     E  E  E  E  Q    E  E
--------------------------|------------------------|-------------------------|
-----------------5-----5--|--5--7--7~--------------|-------------------------|
-----7-----8-----5-----5--|--5--7--7~--------------|-------------------------|
-----8-----8--------------|------------------------|-----------8--8-------5--|
--------------------------|---------------------5--|-----8-----6--6-------3--|
--------------------------|---------------------3--|-----6-------------------|


   E  E  Q    Q    E  E     E  E  E  E  E  E  E  E     E  E  Q    Q    E  E
------------------------|--------------------------|------------------------|
------------------------|--------------------------|------------------------|
------------------------|-----------------------5--|--5--7--7---------------|
--5--7--7---------------|-----------8-----5-----5--|--5--7--7---------------|
--3--5--5------------5--|-----8-----6-----3-----3--|--3--5--5------------5--|
---------------------3--|-----6--------------------|---------------------3--|


   E  E  E  E  Q     E  S S    E  E  Q    Q    E  E     E  E  E  E  E  E  E  E
---------------------------|------------------------|--------------------------|
---------------------------|------------------------|-----------------5-----5--|
-----------------------5-5-|--5--7--7---------------|-----------------5-----5--|
-----------8--8~-------5-5-|--5--7--7---------------|-----------8-----5-----5--|
-----8-----6--6~-------3-3-|--3--5--5------------5--|-----8-----6-----3-----3--|
-----6---------------------|---------------------3--|-----6--------------------|


                                                               PM PM PM PM  
   E  E  Q    Q    E  E     E  E  E  E  H           E  E  E  E  E  E  E  E
------------------------|-----------------------|--------------------------|
------------------------|-----------------------|--------------------------|
--5--7--7---------------|-----------------------|--7--7--7-----------------|
--5--7--7---------------|-----------8--8--------|--7--7--7-----------------|
--3--5--5------------5--|-----8-----6--6--------|--5--5--5--0--0--0--0--0--|
---------------------3--|-----6-----------------|--------------------------|


              PM PM PM PM             PM PM PM PM PM                         
  E  E  E  E  E  E  E  E     E  E  E  E  E  E  E  E     Q.     E  Q    Q     
--------------------------|--------------------------|----------------------|
--------------------------|--------------------------|----------------------|
--------------------------|--7--7--7-----------------|----------------------|
-----------5--------------|--7--7--7--------------4--|--L-------------------|
-----------3--3--3--3--3--|--5--5--5--0--0--0--0--2--|--L------5--L----5----|
--0--0--0-----------------|--------------------------|---------3--L----3----|


              PM PM PM PM                PM PM PM PM                PM PM PM PM  
   E  E  E  E  E  E  E  E     E  E  E  E  E  E  E  E     E  E  E  E  E  E  E  E
--------------------------|--------------------------|--------------------------|
--------------------------|--------------------------|--------------------------|
--7--7--7-----------------|--------------------------|--7--7--7-----------------|
--7--7--7-----------------|-----------5--------------|--7--7--7--------------4--|
--5--5--5--0--0--0--0--0--|-----------3--3--3--3--3--|--5--5--5--0--0--0--0--2--|
--------------------------|--0--0--0-----------------|--------------------------|


   E  E  E  E  Q    E  E     E  E  E  E  E  E  E  E     E  E  Q    Q    E  E
-------------------------|--------------------------|------------------------|
-------------------------|--------------------------|------------------------|
-------------------------|--------------------------|------------------------|
--L--4--4--4--4----4-----|--------------------------|--------2----2----2-----|
--L--2--2--2--2----2--5--|--L--5--5--5--5--5--5--3--|--L--0--0----0----0--3--|
----------------------3--|--L--3--3--3--3--3--3-----|------------------------|


   E  E  E  E  Q.      E     E  E  Q    Q    E  E     E  E  E  E  Q.      E
-------------------------|------------------------|-------------------------|
-------------------------|------------------------|-----------8--L~---------|
-----------7--L~---------|------------------------|-----------7--L~---------|
-----------7--L~---------|--------2----2----2-----|-------------------------|
--L--0----------------3--|--L--0--0----0----0--3--|--L--0----------------3--|
--------3----------------|------------------------|--------3----------------|


   E  E  Q    Q    E  E     E  E  E  E  Q.      E     E  E  Q    Q    E  E     E  E  E  E
------------------------|-------------------------|------------------------|--------------|
------------------------|-------------------------|------------------------|-----------8--|
------------------------|-----------7--L~---------|------------------------|-----------7--|
--------2----2----2-----|-----------7--L~---------|--------2----2----2-----|--------------|
--L--0--0----0----0--3--|--L--0----------------3--|--L--0--0----0----0--3--|--L--0--------|
------------------------|--------3----------------|------------------------|--------3-----|


  W                    H.           E  E     E  E  Q    Q    E  E     E  E  E  E  E  E  E  S S  
--------------------|---------------------|------------------------|---------------------------|
--L~----------------|--L------------------|------------------------|---------------------------|
--L~----------------|--L------------------|------------------------|-----------------------5-5-|
--------------------|------------------5--|--5--7--7---------------|-----------8-----5-----5-5-|
--------------------|------------------3--|--3--5--5------------5--|-----8-----6-----3-----3-3-|
--------------------|---------------------|---------------------3--|-----6---------------------|


   E  E  Q    Q    E  E     E  E  E  E  Q     E  S S    E  E  Q    Q    E  E
------------------------|---------------------------|------------------------|
------------------------|---------------------------|------------------------|
--5--7--7---------------|---------------------------|------------------------|
--5--7--7---------------|-----------8--8~-------5-5-|--5--7--7---------------|
--3--5--5------------5--|-----8-----6--6~-------3-3-|--3--5--5------------5--|
---------------------3--|-----6---------------------|---------------------3--|


  E  E  E  E  E  E  E  S S    E  E  Q    Q    E  E     E  E  E  E  H         
---------------------------|------------------------|-----------------------|
---------------------------|------------------------|-----------------------|
-----------------5-----5-5-|--5--7--7---------------|-----------------------|
-----------8-----5-----5-5-|--5--7--7---------------|-----------8--8--------|
-----8-----6-----3-----3-3-|--3--5--5------------5--|-----8-----6--6--------|
-----6---------------------|---------------------3--|-----6-----------------|


              PM PM PM PM                PM PM PM PM                PM PM PM PM  
   E  E  E  E  E  E  E  E     E  E  E  E  E  E  E  E     E  E  E  E  E  E  E  E
--------------------------|--------------------------|--------------------------|
--------------------------|--------------------------|--------------------------|
--7--7--7-----------------|--------------------------|--7--7--7-----------------|
--7--7--7--2--------------|-----------5--------------|--7--7--7--2-----------4--|
--5--5--5--0--0--0--0--0--|--2--2--2--3--3--3--3--3--|--5--5--5--0--0--0--0--2--|
--------------------------|--0--0--0-----------------|--------------------------|


                                    PM PM PM PM                PM PM PM PM  
   Q.     E  H           E  E  E  E  E  E  E  E     E  E  E  E  E  E  E  E
---------------------|--------------------------|--------------------------|
---------------------|--------------------------|--------------------------|
---------------------|--7--7--7-----------------|--------------------------|
--L------------------|--7--7--7--2--------------|-----------5--------------|
--L------5--L--------|--5--5--5--0--0--0--0--0--|--2--2--2--3--3--3--3--3--|
---------3--L--------|--------------------------|--0--0--0-----------------|


              PM PM PM PM                                                    
   E  E  E  E  E  E  E  E     E  E  Q    Q    E  E     E  E  Q    Q    E  E
--------------------------|------------------------|------------------------|
--------------------------|------------------------|------------------------|
--7--7--7-----------------|------------------------|------------------------|
--7--7--7--2-----------4--|--L--4--4----4----4-----|------------------------|
--5--5--5--0--0--0--0--2--|--L--2--2----2----2--5--|--L--5--5----5----5--3--|
--------------------------|---------------------3--|--L--3--3----3----3-----|


   E  E  Q    Q    E  E     E  E  E  E  Q.      E     E  E  Q    Q    E  E
------------------------|-------------------------|------------------------|
------------------------|-------------------------|------------------------|
------------------------|-----------7--L~---------|------------------------|
--------2----2----2-----|-----------7--L~---------|--------2----2----2-----|
--L--0--0----0----0--3--|--L--0----------------3--|--L--0--0----0----0--3--|
------------------------|--------3----------------|------------------------|


   E  E  E  E  Q.      E     E  E  Q    Q    E  E     E  E  E  E  Q.      E
-------------------------|------------------------|-------------------------|
-----------8--L~---------|------------------------|-------------------------|
-----------7--L~---------|------------------------|-----------7--L~---------|
-------------------------|--------2----2----2-----|-----------7--L~---------|
--L--0----------------3--|--L--0--0----0----0--3--|--L--0----------------3--|
--------3----------------|------------------------|--------3----------------|


   E  E  Q    Q    E  E     E  E  E  E     W                   H.           E  E
------------------------|--------------|-------------------|---------------------|
------------------------|-----------8--|--L----------------|--L------------------|
------------------------|-----------7--|--L----------------|--L------------------|
--------2----2----2-----|--------------|-------------------|---------------------|
--L--0--0----0----0--3--|--L--0--------|-------------------|---------------5--5--|
------------------------|--------3-----|-------------------|---------------3--3--|


     PM PM PM PM PM PM PM    PM PM PM PM                                       
   E  E  E  E  E  E  E  E     E  E  E  E  Q     E  E     E  E  Q    Q    E  E
--------------------------|--------------------------|------------------------|
--------------------------|--------------------------|--------8---------------|
--------------------------|--------------------------|--------7---------------|
--------------------------|--------------------------|--------5------------2--|
--L--5--5--5--5--5--5--5--|--5--5--5--5--5~----5-----|------------------0--0--|
--L--3--3--3--3--3--3--3--|--3--3--3--3--3~----3--0--|--L--0-------0----------|


   Q    E  E  E  E   E   E     E  E  Q    E  E  E  E     Q    E  E  E  E  E  E
---------------------------|-------------------------|-------------------------|
-------------8--7----------|--------8----5--5--------|-------------8--7--L-----|
-------------7--7--(5)-----|--------7----4--4--------|-------------7--7--L-----|
--L------------------------|--------5----2--2-----2--|--L----------------------|
--L----0--0----------------|-------------------0--0--|--L----0--0--------------|
------------------------0--|--L--0-------------------|----------------------0--|


   E  E  Q    Q    E  E     Q    E  E  E  E  E  E     E  E  Q    Q    E  E
------------------------|-------------------------|------------------------|
--------8----5----------|-------------8--7--L-----|--------8----5----------|
--------7----4----------|-------------7--7--L-----|--------7----4----------|
--------5----2-------2--|--L----------------------|--------5----2-------2--|
------------------0--0--|--L----0--0--------------|------------------0--0--|
--L--0------------------|----------------------0--|--L--0------------------|


   Q    Q    E  E  E  E     E  E  Q    Q    E  E     Q    E  E  E  E  E  E
------------------------|------------------------|-------------------------|
------------8--7--L-----|--------8----5----------|-------------8--7--L-----|
------------7--7--L-----|--------7----4----------|-------------7--7--L-----|
--L---------------------|--------5----2-------2--|--L----------------------|
--L----0----------------|------------------0--0--|--L----0--0--------------|
---------------------0--|--L--0------------------|----------------------0--|


   E  E  Q    Q    E  E     Q    E  E  E  E  E  E     E  E  Q    Q    E  E
------------------------|-------------------------|------------------------|
--------8----5----------|-------------8--7--L-----|--------8----5----------|
--------7----4----------|-------------7--7--L-----|--------7----4----------|
--------5----2-------2--|--L----------------------|--------5----2-------2--|
------------------0--0--|--L----0--0--------------|------------------0--0--|
--L--0------------------|----------------------0--|--L--0------------------|


   Q    Q    E  E  E  E     E  E  Q    Q    E  E     E  E  E  E  E  E  E  E
------------------------|------------------------|--------------------------|
------------8--7--L-----|--------8----5----------|--------------------------|
------------7--7--L-----|--------7----4----------|--------------------------|
--L---------------------|--------5----2-------2--|--L--2--2--2--2--2--2--2--|
--L----0----------------|------------------0--0--|--L--0--0--0--0--0--0--0--|
---------------------0--|--L--0------------------|--------------------------|


  E  E  E  E  E  E  E  E     E  E  Q    Q    E  E     E  E  E  E  E  E  E  S S  
--------------------------|------------------------|---------------------------|
--------------------------|------------------------|---------------------------|
--------------------------|------------------------|-----------------------5-5-|
--2--2--2--2--2--2--2--5--|--5--7--7---------------|-----------8-----5-----5-5-|
--0--0--0--0--0--0--0--3--|--3--5--5------------5--|-----8-----6-----3-----3-3-|
--------------------------|---------------------3--|-----6---------------------|


   E  E  Q    Q    E  E     E  E  E  E  Q    E  S S    E  E  Q    Q    E  E
------------------------|--------------------------|------------------------|
------------------------|--------------------------|------------------------|
--5--7--7---------------|-----------8--8-------5-5-|------------------------|
--5--7--7---------------|-----------8--8-------5-5-|--5--7--7---------------|
--3--5--5------------5--|-----8-----6--6-------3-3-|--3--5--5------------5--|
---------------------3--|-----6--------------------|---------------------3--|


   E  E  E  E  E  E  E  S S    E  E  Q    Q    E  E     E  E  E  E  Q.     E
---------------------------|------------------------|------------------------|
---------------------------|------------------------|------------------------|
-----------------5-----5-5-|--5--7--7---------------|------------------------|
-----------8-----5-----5-5-|--5--7--7---------------|-----------8--8---------|
-----8-----6-----3-----3-3-|--3--5--5------------5--|-----8-----6--6------3--|
-----6---------------------|---------------------3--|-----6------------------|


   E  E  Q    Q    E  E     E  E  E  E  Q.      E     E  E  Q    Q    E  E
------------------------|-------------------------|------------------------|
------------------------|-------------------------|------------------------|
------------------------|-----------7--L~---------|------------------------|
--------2----2----2-----|-----------7--L~---------|--------2----2----2-----|
--L--0--0----0----0--3--|--L--0----------------3--|--L--0--0----0----0--3--|
------------------------|--------3----------------|------------------------|


   E  E  E  E  Q.      E     E  E  Q    Q    E  E     E  E  E  E  Q.      E
-------------------------|------------------------|-------------------------|
-----------8--L~---------|------------------------|-------------------------|
-----------7--L~---------|------------------------|-----------7--L~---------|
-------------------------|--------2----2----2-----|-----------7--L~---------|
--L--0----------------3--|--L--0--0----0----0--3--|--L-------------------3--|
--------3----------------|------------------------|-----5--3----------------|


   E  E  Q    Q    E  E     E  E  E  E  Q.      E     E  E  Q    Q    E  E
------------------------|-------------------------|------------------------|
------------------------|-----------8--L~---------|------------------------|
------------------------|-----------7--L~---------|------------------------|
--------2----2----2-----|-------------------------|--------2----2----2-----|
--L--0--0----0----0--3--|--L--0----------------3--|--L--0--0----0----0--3--|
------------------------|--------3----------------|------------------------|


  E  E  E  E  Q.      E     E  E  Q    Q    E  E     E  E  E  E     W                 
-------------------------|------------------------|--------------|-------------------|
-------------------------|------------------------|-----------8--|--L----------------|
-----------7--L~---------|------------------------|-----------7--|--L----------------|
-----------7--L~---------|--------2----2----2-----|--------------|-------------------|
--L--0----------------3--|--L--0--0----0----0--3--|--L--0--------|-------------------|
--------3----------------|------------------------|--------3-----|-------------------|


  H.           E  E     W                   E  E  E  E  E  E  E  E     Q     Q    H          
---------------------|-------------------|--------------------------|----------------------||
--L------------------|-------------------|--------------------------|----------------------||
--L------------7--7--|--L----------------|--7--7--7--7--7--7--------|----------------------||
---------------7--7--|--L----------------|--7--7--7--7--7--7--7--7--|--L\------------------||
---------------5--5--|--L----------------|--5--5--5--5--5--5--7--7--|--L\------------------||
---------------------|-------------------|--------------------5--5--|--L\------------------||



Guitar - right

     W                   W                   W                   W                 
E|-------------------|-------------------|-------------------|-------------------|
B|-------------------|-------------------|-------------------|-------------------|
G|-------------------|-------------------|-------------------|-------------------|
D|-------------------|-------------------|-------------------|-------------------|
A|-------------------|-------------------|-------------------|-------------------|
E|-------------------|-------------------|-------------------|-------------------|


                                                                        pick scrape         
   W                   W                   W                   H         Q           E   E
-------------------|-------------------|-------------------|-------------------------------|
-------------------|-------------------|-------------------|-------------------------------|
-------------------|-------------------|-------------------|------------x\-----------------|
-------------------|-------------------|-------------------|------------x\-----------------|
-------------------|-------------------|-------------------|----------------------------5--|
-------------------|-------------------|-------------------|-----------------------12\--3--|


   E  E  E  E  Q     Q       W                   W                   H        Q    E  E
-------------------------|-------------------|-------------------|----------------------|
-------------------------|-------------------|-------------------|----------------------|
-------------------------|-------------------|-------------------|----------------------|
-----------8--8\---------|-------------------|-------------------|----------------------|
-----8-----6--6\---------|-------------------|-------------------|-------------------5--|
-----6-------------------|-------------------|-------------------|-------------------3--|


   E  E  E  E  Q     Q       W                   W                   H        Q    E  E
-------------------------|-------------------|-------------------|----------------------|
-------------------------|-------------------|-------------------|----------------------|
-------------------------|-------------------|-------------------|----------------------|
-----------8--8~---------|-------------------|-------------------|----------------------|
-----8-----6--6~---------|-------------------|-------------------|-------------------5--|
-----6-------------------|-------------------|-------------------|-------------------3--|


                                      PM PM PM PM                PM PM PM PM  
   E  E  E  E  H           E  E  E  E  E  E  E  E     E  E  E  E  E  E  E  E
-----------------------|--------------------------|--------------------------|
-----------------------|--------------------------|--------------------------|
-----------------------|--7--7--7-----------------|--------------------------|
-----------8--8--------|--7--7--7-----------------|-----------5--------------|
-----8-----6--6--------|--5--5--5--0--0--0--0--0--|-----------3--3--3--3--3--|
-----6-----------------|--------------------------|--0--0--0-----------------|


           PM PM PM PM PM                                       PM PM PM PM  
   E  E  E  E  E  E  E  E     Q.     E  Q    Q       E  E  E  E  E  E  E  E
--------------------------|----------------------|--------------------------|
--------------------------|----------------------|--------------------------|
--7--7--7-----------------|----------------------|--7--7--7-----------------|
--7--7--7--------------4--|--L-------------------|--7--7--7-----------------|
--5--5--5--0--0--0--0--2--|--L------5--L----5----|--5--5--5--0--0--0--0--0--|
--------------------------|---------3--L----3----|--------------------------|


              PM PM PM PM                PM PM PM PM                            
   E  E  E  E  E  E  E  E     E  E  E  E  E  E  E  E     E  E  E  E  Q    E  E
--------------------------|--------------------------|-------------------------|
--------------------------|--------------------------|-------------------------|
--------------------------|--7--7--7-----------------|-------------------------|
-----------5--------------|--7--7--7--------------4--|--L--4--4--4--4----4-----|
-----------3--3--3--3--3--|--5--5--5--0--0--0--0--2--|--L--2--2--2--2----2--5--|
--0--0--0-----------------|--------------------------|----------------------3--|


   E  E  E  E  E  E  E  E     E  E  Q    Q    E  E     E  E  E  E  Q.      E
--------------------------|------------------------|-------------------------|
--------------------------|------------------------|-------------------------|
--------------------------|------------------------|-----------7--L~---------|
--------------------------|--------2----2----2-----|-----------7--L~---------|
--L--5--5--5--5--5--5--3--|--L--0--0----0----0--3--|--L--0----------------3--|
--L--3--3--3--3--3--3-----|------------------------|--------3----------------|


   E  E  Q    Q    E  E     E  E  E  E  Q.      E     E  E  Q    Q    E  E
------------------------|-------------------------|------------------------|
------------------------|-----------8--L~---------|------------------------|
------------------------|-----------7--L~---------|------------------------|
--------2----2----2-----|-------------------------|--------2----2----2-----|
--L--0--0----0----0--3--|--L--0----------------3--|--L--0--0----0----0--3--|
------------------------|--------3----------------|------------------------|


  E  E  E  E  Q.      E     E  E  Q    Q    E  E     E  E  E  E     W                  
-------------------------|------------------------|--------------|--------------------|
-------------------------|------------------------|-----------8--|--L~----------------|
-----------7--L~---------|------------------------|-----------7--|--L~----------------|
-----------7--L~---------|--------2----2----2-----|--------------|--------------------|
--L--0----------------3--|--L--0--0----0----0--3--|--L--0--------|--------------------|
--------3----------------|------------------------|--------3-----|--------------------|


   H.           Q       W                   W                   H        Q    E  E
--------------------|-------------------|-------------------|----------------------|
--L-----------------|-------------------|-------------------|----------------------|
--L-----------------|-------------------|-------------------|----------------------|
--------------------|-------------------|-------------------|----------------------|
--------------------|-------------------|-------------------|-------------------5--|
--------------------|-------------------|-------------------|-------------------3--|


   E  E  E  E  Q     Q       W                   W                   H        Q    E  E
-------------------------|-------------------|-------------------|----------------------|
-------------------------|-------------------|-------------------|----------------------|
-------------------------|-------------------|-------------------|----------------------|
-----------8--8~---------|-------------------|-------------------|----------------------|
-----8-----6--6~---------|-------------------|-------------------|-------------------5--|
-----6-------------------|-------------------|-------------------|-------------------3--|


                                      PM PM PM PM                PM PM PM PM  
   E  E  E  E  H           E  E  E  E  E  E  E  E     E  E  E  E  E  E  E  E
-----------------------|--------------------------|--------------------------|
-----------------------|--------------------------|--------------------------|
-----------------------|--7--7--7-----------------|--------------------------|
-----------8--8--------|--7--7--7--2--------------|-----------5--------------|
-----8-----6--6--------|--5--5--5--0--0--0--0--0--|--2--2--2--3--3--3--3--3--|
-----6-----------------|--------------------------|--0--0--0-----------------|


              PM PM PM PM                                      PM PM PM PM  
   E  E  E  E  E  E  E  E     Q.     E  H           E  E  E  E  E  E  E  E
--------------------------|---------------------|--------------------------|
--------------------------|---------------------|--------------------------|
--7--7--7-----------------|---------------------|--7--7--7-----------------|
--7--7--7--2-----------4--|--L------------------|--7--7--7--2--------------|
--5--5--5--0--0--0--0--2--|--L------5--L--------|--5--5--5--0--0--0--0--0--|
--------------------------|---------3--L--------|--------------------------|


              PM PM PM PM                PM PM PM PM                           
   E  E  E  E  E  E  E  E     E  E  E  E  E  E  E  E     E  E  Q    Q    E  E
--------------------------|--------------------------|------------------------|
--------------------------|--------------------------|------------------------|
--------------------------|--7--7--7-----------------|------------------------|
-----------5--------------|--7--7--7--2-----------4--|--L--4--4----4----4-----|
--2--2--2--3--3--3--3--3--|--5--5--5--0--0--0--0--2--|--L--2--2----2----2--5--|
--0--0--0-----------------|--------------------------|---------------------3--|


   E  E  Q    Q    E  E     E  E  Q    Q    E  E     E  E  E  E  Q.      E
------------------------|------------------------|-------------------------|
------------------------|------------------------|-------------------------|
------------------------|------------------------|-----------7--L~---------|
------------------------|--------2----2----2-----|-----------7--L~---------|
--L--5--5----5----5--3--|--L--0--0----0----0--3--|--L--0----------------3--|
--L--3--3----3----3-----|------------------------|--------3----------------|


   E  E  Q    Q    E  E     E  E  E  E  Q.      E     E  E  Q    Q    E  E
------------------------|-------------------------|------------------------|
------------------------|-----------8--L~---------|------------------------|
------------------------|-----------7--L~---------|------------------------|
--------2----2----2-----|-------------------------|--------2----2----2-----|
--L--0--0----0----0--3--|--L--0----------------3--|--L--0--0----0----0--3--|
------------------------|--------3----------------|------------------------|


  E  E  E  E  Q.      E     E  E  Q    Q    E  E     E  E  E  E     W                 
-------------------------|------------------------|--------------|-------------------|
-------------------------|------------------------|-----------8--|--8----------------|
-----------7--L~---------|------------------------|-----------7--|--7----------------|
-----------7--L~---------|--------2----2----2-----|--------------|-------------------|
--L--0----------------3--|--L--0--0----0----0--3--|--L--0--------|-------------------|
--------3----------------|------------------------|--------3-----|-------------------|


               pick scrape                                                            
                                       PM PM PM PM PM PM    PM PM PM PM               
   Q     Q      Q          Q       Q    E  E  E  E  E  E     E  E  E  E  Q     E   E
-------------------------------|-------------------------|---------------------------|
--L----------------------------|-------------------------|-----------------------12--|
--L----------------------------|-------------------------|-----------------------12--|
---------------x\--------------|-------------------------|---------------------------|
---------------x\--------------|-------------------------|--5--5--5--5---------------|
-------12\---------------------|-------3--3--3--3--3--3--|--3--3--3--3--3~-----------|


                                             PM                         PM                     
    E   E   Q     Q     E    E      Q     E   E   S   S  E   Q        E  E  E  E  E  E  E  E
-------------------------------|----------------------------------|---------------------------|
---L------12-------------------|----------------------------------|---------------------------|
---L------12----------14b--14--|---L----14------14p-12-----12\----|---------------------------|
------14--------14-------------|------------14---------14---------|--5-----5--5--L------------|
-------------------------------|----------------------------------|-----7-----------7--5--5b--|
-------------------------------|----------------------------------|---------------------------|


  H        Q     E  E     E  E  E  E   E  E  S S E     Q      S  S  S  S  E   E   Q      
-----------------------|----------------------------|-----------------------------------|
-----------------------|----------------------------|--------12-12-12-12-14--12---------|
-----------------------|----------------------------|--------12-12-12-12-14--12---------|
-----------------------|----------------------------|----------------------------14~----|
--L--------L~----------|---------------------7-7-7--|--L~-------------------------------|
--------------------3--|--L--0--5--3~--L--0---------|-----------------------------------|


             PM                                                    
   Q     E   E   S   S  E   E   E      E   E    E   E   H          
-----------------------------------|------------------------------|
-----------------------------------|--12-----------15--15---------|
--------12------14p-12-----12------|--12--14b---L------14b--------|
--14--------14---------14------14--|------------------------------|
-----------------------------------|------------------------------|
-----------------------------------|------------------------------|


   E.   S  Q      E   E    S  S   S  S      S  S   S   S  E    E   Q     S  E.    
--------------------------12------------|----------------------------------------|
---L-------------12----------15p-12-----|--12------------------------------------|
---L---12-14~----12--14b------------14b-|-----15p-14p-12-14b--12-----------------|
----------------------------------------|-------------------------14~------14/---|
----------------------------------------|----------------------------------------|
----------------------------------------|----------------------------------------|


  E   E    E   E    E   E    E   E       E   E    E   E    Q    S E.   
-----15b---L--15b---L--15b---L--15b--|---L--15b---L--15b---L----x-----|
-------------------------------------|--------------------------x-----|
--0----------------------------------|----------------------------0---|
-------------------------------------|--------------------------------|
-------------------------------------|--------------------------------|
-------------------------------------|--------------------------------|


                              |---3---|          |---3--|       |---3--|       |---3--|         
  E  S  S  E   E   Q      E   S   S   S     E    S  S   S  E    S  S   S  E    S  S   S  Q      
-------12-12----------------------------|-------12-------------12-------------12---------------|
--------------15---L~----15--12h-15p-12-|--15b-----15p-12-15b-----15p-12-15b-----15p-12-15~----|
--0--0----------------------------------|------------------------------------------------------|
--0--0----------------------------------|------------------------------------------------------|
----------------------------------------|------------------------------------------------------|
----------------------------------------|------------------------------------------------------|


   S   S   S  S  S  S   S   S  S  E.    Q         E   E   Q     H         
----------------------------------------------|------14---L--------------|
--12h-15p-12----12------------14--------------|--12--14---L--------------|
-------------15----15p-14p-12-14-12b----------|--12--14---L----14--------|
---------------------------------------14~----|--------------------------|
----------------------------------------------|--------------------------|
----------------------------------------------|--------------------------|


                   pick scrape                                                      
   E   E   E   E   Q          Q       E  E  Q     H           H        Q    E  S S  
-----------------------------------|-----------------------|-----------------------|
-----------------------------------|-----------------------|-----------------------|
--14--14--14--14---x\--------------|-----------------------|-----------------------|
-------------------x\--------------|--5--7--7\-------------|-------------------5-5-|
-----------------------------------|--3--5--5\-------------|-------------------3-3-|
-----------------------------------|-----------------------|-----------------------|


  E  E  Q     H           H        Q    E  S S    E  E  Q     H           H        Q    E  S S  
-----------------------|-----------------------|-----------------------|-----------------------|
-----------------------|-----------------------|-----------------------|-----------------------|
-----------------------|-----------------------|-----------------------|-----------------------|
--5--7--7\-------------|-------------------5-5-|--5--7--7\-------------|-------------------5-5-|
--3--5--5\-------------|-------------------3-3-|--3--5--5\-------------|-------------------3-3-|
-----------------------|-----------------------|-----------------------|-----------------------|


   E  E  H         E  E     E  E  E  E  Q.     E     E  E  Q    Q    E  E
------------------------|------------------------|------------------------|
------------------------|------------------------|------------------------|
------------------------|------------------------|------------------------|
--5--7--7~--------------|-----------8--8---------|--------2----2----2-----|
--3--5--5~-----------5--|-----8-----6--6------3--|--L--0--0----0----0--3--|
---------------------3--|-----6------------------|------------------------|


   E  E  E  E  Q.      E     E  E  Q    Q    E  E     E  E  E  E  Q.      E
-------------------------|------------------------|-------------------------|
-------------------------|------------------------|-----------8--L~---------|
-----------7--L~---------|------------------------|-----------7--L~---------|
-----------7--L~---------|--------2----2----2-----|-------------------------|
--L--0----------------3--|--L--0--0----0----0--3--|--L--0----------------3--|
--------3----------------|------------------------|--------3----------------|


   E  E  Q    Q    E  E     E  E  E  E  Q.      E     E  E  Q    Q    E  E
------------------------|-------------------------|------------------------|
------------------------|-------------------------|------------------------|
------------------------|-----------7--L~---------|------------------------|
--------2----2----2-----|-----------7--L~---------|--------2----2----2-----|
--L--0--0----0----0--3--|--L-------------------3--|--L--0--0----0----0--3--|
------------------------|-----5--3----------------|------------------------|


   E  E  E  E  Q.      E     E  E  Q    Q    E  E     E  E  E  E  Q.      E
-------------------------|------------------------|-------------------------|
-----------8--L~---------|------------------------|-------------------------|
-----------7--L~---------|------------------------|-----------7--L~---------|
-------------------------|--------2----2----2-----|-----------7--L~---------|
--L--0----------------3--|--L--0--0----0----0--3--|--L--0----------------3--|
--------3----------------|------------------------|--------3----------------|


   E  E  Q    Q    E  E     E  E  E  E     W                   H.           E  E
------------------------|--------------|-------------------|---------------------|
------------------------|-----------8--|--L----------------|--L------------------|
------------------------|-----------7--|--L----------------|--L------------7--7--|
--------2----2----2-----|--------------|-------------------|---------------7--7--|
--L--0--0----0----0--3--|--L--0--------|-------------------|---------------5--5--|
------------------------|--------3-----|-------------------|---------------------|


                      PM                                               
  W                   E  E  E  E  E  E  E  E     Q     Q    H          
-------------------|--------------------------|----------------------||
-------------------|--------------------------|----------------------||
--L----------------|--7--7--7--7--7--7--------|----------------------||
--L----------------|--7--7--7--7--7--7--7--7--|--L\------------------||
--L----------------|--5--5--5--5--5--5--7--7--|--L\------------------||
-------------------|--------------------5--5--|--L\------------------||



Guitar - lead fill

     W                   W                   W                   W                 
E|-------------------|-------------------|-------------------|-------------------|
B|-------------------|-------------------|-------------------|-------------------|
G|-------------------|-------------------|-------------------|-------------------|
D|-------------------|-------------------|-------------------|-------------------|
A|-------------------|-------------------|-------------------|-------------------|
E|-------------------|-------------------|-------------------|-------------------|


  W                   W                   W                   W                   W                 
-------------------|-------------------|-------------------|-------------------|-------------------|
-------------------|-------------------|-------------------|-------------------|-------------------|
-------------------|-------------------|-------------------|-------------------|-------------------|
-------------------|-------------------|-------------------|-------------------|-------------------|
-------------------|-------------------|-------------------|-------------------|-------------------|
-------------------|-------------------|-------------------|-------------------|-------------------|


  W                   W                   W                   W                   W                 
-------------------|-------------------|-------------------|-------------------|-------------------|
-------------------|-------------------|-------------------|-------------------|-------------------|
-------------------|-------------------|-------------------|-------------------|-------------------|
-------------------|-------------------|-------------------|-------------------|-------------------|
-------------------|-------------------|-------------------|-------------------|-------------------|
-------------------|-------------------|-------------------|-------------------|-------------------|


  W                   W                   W                   W                   W                 
-------------------|-------------------|-------------------|-------------------|-------------------|
-------------------|-------------------|-------------------|-------------------|-------------------|
-------------------|-------------------|-------------------|-------------------|-------------------|
-------------------|-------------------|-------------------|-------------------|-------------------|
-------------------|-------------------|-------------------|-------------------|-------------------|
-------------------|-------------------|-------------------|-------------------|-------------------|


  H        Q    E  E      Q      Q     T    T  E  S S  E.     W                   W                 
-----------------------|-----------------------------------|-------------------|-------------------|
-----------------------|-----------------------------------|-------------------|-------------------|
-------------------9b--|--Lpb----9b----9pbr-Lp-7----7h-9---|-------------------|-------------------|
-----------------------|--------------------------7--------|-------------------|-------------------|
-----------------------|-----------------------------------|-------------------|-------------------|
-----------------------|-----------------------------------|-------------------|-------------------|


  H        Q    E  E      E  E   Q     E    S S E  E     E     S  S Q    Q     Q     
-----------------------|------------------------------|-----------------------------|
-----------------------|-----7--10-----Lb---L-7----7--|-----------------------------|
-------------------9b--|--L---------------------9-----|--9pbr--Lp-7-----------------|
-----------------------|------------------------------|-------------9----L~---------|
-----------------------|------------------------------|-----------------------------|
-----------------------|------------------------------|-----------------------------|


  W                   W                   W                   W                   W                 
-------------------|-------------------|-------------------|-------------------|-------------------|
-------------------|-------------------|-------------------|-------------------|-------------------|
-------------------|-------------------|-------------------|-------------------|-------------------|
-------------------|-------------------|-------------------|-------------------|-------------------|
-------------------|-------------------|-------------------|-------------------|-------------------|
-------------------|-------------------|-------------------|-------------------|-------------------|


  W                   W                   H           W                   W                 
-------------------|-------------------|-----------|-------------------|-------------------|
-------------------|-------------------|-----------|-------------------|-------------------|
-------------------|-------------------|-----------|-------------------|-------------------|
-------------------|-------------------|-----------|-------------------|-------------------|
-------------------|-------------------|-----------|-------------------|-------------------|
-------------------|-------------------|-----------|-------------------|-------------------|


  W                   W                   W                   W                   W                 
-------------------|-------------------|-------------------|-------------------|-------------------|
-------------------|-------------------|-------------------|-------------------|-------------------|
-------------------|-------------------|-------------------|-------------------|-------------------|
-------------------|-------------------|-------------------|-------------------|-------------------|
-------------------|-------------------|-------------------|-------------------|-------------------|
-------------------|-------------------|-------------------|-------------------|-------------------|


  W                   W                   W                   W                   W                 
-------------------|-------------------|-------------------|-------------------|-------------------|
-------------------|-------------------|-------------------|-------------------|-------------------|
-------------------|-------------------|-------------------|-------------------|-------------------|
-------------------|-------------------|-------------------|-------------------|-------------------|
-------------------|-------------------|-------------------|-------------------|-------------------|
-------------------|-------------------|-------------------|-------------------|-------------------|


  H        Q    E  E      Q.     E   H           W                   W                 
-----------------------|----------------------|-------------------|-------------------|
-----------------------|----------------------|-------------------|-------------------|
-----------------------|----------------------|-------------------|-------------------|
-------------------9~--|--L------9~--L--------|-------------------|-------------------|
-----------------------|----------------------|-------------------|-------------------|
-----------------------|----------------------|-------------------|-------------------|


  H        Q    E   E       E   E   E    E   E    E   E    E      Q     Q    H         
------------------------|-------------------------------------|-----------------------|
------------------------|------22-------22-------22-----------|-----------------------|
-------------------21b--|---L------21b------21b------21b--19--|---L\------------------|
------------------------|-------------------------------------|-----------------------|
------------------------|-------------------------------------|-----------------------|
------------------------|-------------------------------------|-----------------------|


  W                   W                   W                   W                   W                 
-------------------|-------------------|-------------------|-------------------|-------------------|
-------------------|-------------------|-------------------|-------------------|-------------------|
-------------------|-------------------|-------------------|-------------------|-------------------|
-------------------|-------------------|-------------------|-------------------|-------------------|
-------------------|-------------------|-------------------|-------------------|-------------------|
-------------------|-------------------|-------------------|-------------------|-------------------|


  W                   W                   H           W                   W                 
-------------------|-------------------|-----------|-------------------|-------------------|
-------------------|-------------------|-----------|-------------------|-------------------|
-------------------|-------------------|-----------|-------------------|-------------------|
-------------------|-------------------|-----------|-------------------|-------------------|
-------------------|-------------------|-----------|-------------------|-------------------|
-------------------|-------------------|-----------|-------------------|-------------------|


  W                   W                   W                   W                   W                 
-------------------|-------------------|-------------------|-------------------|-------------------|
-------------------|-------------------|-------------------|-------------------|-------------------|
-------------------|-------------------|-------------------|-------------------|-------------------|
-------------------|-------------------|-------------------|-------------------|-------------------|
-------------------|-------------------|-------------------|-------------------|-------------------|
-------------------|-------------------|-------------------|-------------------|-------------------|


  W                   W                   W                   W                   W                 
-------------------|-------------------|-------------------|-------------------|-------------------|
-------------------|-------------------|-------------------|-------------------|-------------------|
-------------------|-------------------|-------------------|-------------------|-------------------|
-------------------|-------------------|-------------------|-------------------|-------------------|
-------------------|-------------------|-------------------|-------------------|-------------------|
-------------------|-------------------|-------------------|-------------------|-------------------|


  W                   W                   W                   W                   W                 
-------------------|-------------------|-------------------|-------------------|-------------------|
-------------------|-------------------|-------------------|-------------------|-------------------|
-------------------|-------------------|-------------------|-------------------|-------------------|
-------------------|-------------------|-------------------|-------------------|-------------------|
-------------------|-------------------|-------------------|-------------------|-------------------|
-------------------|-------------------|-------------------|-------------------|-------------------|


  W                   W                   W                   W                   W                 
-------------------|-------------------|-------------------|-------------------|-------------------|
-------------------|-------------------|-------------------|-------------------|-------------------|
-------------------|-------------------|-------------------|-------------------|-------------------|
-------------------|-------------------|-------------------|-------------------|-------------------|
-------------------|-------------------|-------------------|-------------------|-------------------|
-------------------|-------------------|-------------------|-------------------|-------------------|


  W                   W                   W                   W                   W                 
-------------------|-------------------|-------------------|-------------------|-------------------|
-------------------|-------------------|-------------------|-------------------|-------------------|
-------------------|-------------------|-------------------|-------------------|-------------------|
-------------------|-------------------|-------------------|-------------------|-------------------|
-------------------|-------------------|-------------------|-------------------|-------------------|
-------------------|-------------------|-------------------|-------------------|-------------------|


  W                   Q    E   E   H            W                   W                 
-------------------|-------------------------|-------------------|-------------------|
-------------------|-------------------------|-------------------|-------------------|
-------------------|----------12--12~--------|-------------------|-------------------|
-------------------|-------------------------|-------------------|-------------------|
-------------------|-------------------------|-------------------|-------------------|
-------------------|-------------------------|-------------------|-------------------|


  W                   W                   W                   W                   W                 
-------------------|-------------------|-------------------|-------------------|-------------------|
-------------------|-------------------|-------------------|-------------------|-------------------|
-------------------|-------------------|-------------------|-------------------|-------------------|
-------------------|-------------------|-------------------|-------------------|-------------------|
-------------------|-------------------|-------------------|-------------------|-------------------|
-------------------|-------------------|-------------------|-------------------|-------------------|


  W                   W                   W                   W                   H         
-------------------|-------------------|-------------------|-------------------|-----------|
-------------------|-------------------|-------------------|-------------------|-----------|
-------------------|-------------------|-------------------|-------------------|-----------|
-------------------|-------------------|-------------------|-------------------|-----------|
-------------------|-------------------|-------------------|-------------------|-----------|
-------------------|-------------------|-------------------|-------------------|-----------|


                                          
  W                   W                   W                                         
-------------------|-------------------|-------------------------------------------|
-------------------|-------------------|-------------------------------------------|
-------------------|-------------------|-------------------------------------------|
-------------------|-------------------|-------------------------------------------|
-------------------|-------------------|-------------------------------------------|
-------------------|-------------------|-------------------------------------------|


  W                   W                  
-------------------|-------------------||
-------------------|-------------------||
-------------------|-------------------||
-------------------|-------------------||
-------------------|-------------------||
-------------------|-------------------||



Acordes para:
    Composição: Joe Elliot / Joe Elliott / Rick Savage / Steve Clark Colaboração e revisão:
    • Pedro Henrique

    0 comentários

    mostrar mais comentários

    Conseguiu tocar?

    0 tocaram 0 ainda não

    Grave um vídeo tocando High 'N' Dry (Saturday Night) e mande pra gente!

    00:00 / 00:00
    outros vídeos desta música
    repetir qualidade Automático
    Outros vídeos desta música
    00:00 / 00:00
    Automático
    OK