Cifra Club

Aprenda

Can't Help Falling In Love

Elvis Presley

Cifra: Completa (violão e guitarra)
Tom: A
[Intro] D  A  D  D/A

[Dedilhado Intro]

Parte 1 de 2

   D            A
E|-------2------------0---------------------|
B|-----3---2--------2---2-------------------|
G|---2-------3----2-------2-----------------|
D|-0----------------------------------------|
A|--------------0---------------------------|
E|------------------------------------------|

Parte 2 de 2

   D            D/A
E|--------------2------5--------------------|
B|-------3--------3------7------------------|
G|-----2---2--------2------7----------------|
D|---4-------3------------------------------|
A|-5------------0------0--------------------|
E|------------------------------------------|

[Primeira Parte]

[Dedilhado Primeira Parte]

Parte 1 de 8

   D            F#m
E|-------2------------2---------------------|
B|-----3---2--------2---2-------------------|
G|---2-------3----2-------2-----------------|
D|-0----------------------------------------|
A|------------------------------------------|
E|--------------2---------------------------|

Parte 2 de 8

   Bm           Bm/A
E|-------2------------2---------------------|
B|-----3---3--------3---3-------------------|
G|---4-------4----4-------4-----------------|
D|------------------------------------------|
A|-2------------0---------------------------|
E|------------------------------------------|

Parte 3 de 8

   G            D/F#
E|-------3------------2---------------------|
B|-----3---3--------3---3-------------------|
G|---4-------4----2-------2-----------------|
D|------------------------------------------|
A|------------------------------------------|
E|-3------------2---------------------------|

Parte 4 de 8

   A7/E         A
E|-------0------------0---------------------|
B|-----2---2--------2---2-------------------|
G|---0-------0----2-------2-----------------|
D|------------------------------------------|
A|--------------0---------------------------|
E|-0----------------------------------------|

Parte 5 de 8

   G            A
E|-------3------------0---------------------|
B|-----3---3--------2---2-------------------|
G|---4-------4----2-------2-----------------|
D|------------------------------------------|
A|--------------0---------------------------|
E|-3----------------------------------------|

Parte 6 de 8

   Bm           G
E|-------2------------3---------------------|
B|-----3---3--------3---3-------------------|
G|---4-------4----4-------4-----------------|
D|------------------------------------------|
A|-2----------------------------------------|
E|--------------3---------------------------|

Parte 7 de 8

   D/A          A7
E|-------2------------0---------------------|
B|-----3---3--------2---2-------------------|
G|---2-------2----0-------0-----------------|
D|------------------------------------------|
A|-0------------0---------------------------|
E|------------------------------------------|

Parte 8 de 8

   D            D/A
E|--------------2------5--------------------|
B|-------3--------3------7------------------|
G|-----2---2--------2------7----------------|
D|---4-------3------------------------------|
A|-5------------0------0--------------------|
E|------------------------------------------|

 D    F#m  Bm  Bm/A
Wise men  say
      G     D/F#  A/E  A
Only fools rush   in
    G  A     Bm
But I can't help
 G          D/A  A7   D  D/A
Falling in love with you

  D   F#m  Bm  Bm/A
Shall I  stay
          G  D/F#  A7/E  A
Would it be  a   sin
   G  A     Bm
If I can't help
 G          D/A  A7   D  D/A
Falling in love with you?

[Segunda Parte]

[Dedilhado Segunda Parte]

Parte 1 de 3 (3x)

   F#m          C#7
E|-------2----------------------------------|
B|-----2---2----------2---------------------|
G|---2-------2------4---4-------------------|
D|----------------3-------3-----------------|
A|--------------4---------------------------|
E|-2----------------------------------------|

Parte 2 de 3

   F#m          B7
E|-------2----------------------------------|
B|-----2---2----------4---------------------|
G|---2-------2------2---2-------------------|
D|----------------4-------4-----------------|
A|--------------2---------------------------|
E|-2----------------------------------------|

Parte 3 de 3

   Em           A7
E|-------0------------0---------------------|
B|-----0---0--------2---2-------------------|
G|---0-------0----0-------0-----------------|
D|------------------------------------------|
A|--------------0---------------------------|
E|-0----------------------------------------|

 F#m          C#7
Like a river flows
 F#m           C#7
Surely to the sea
 F#m            C#7
Darling, so it goes
 F#m        B7               Em  A7
Some things    are meant to be

[Terceira Parte]

 D    F#m  Bm  Bm/A
Take my   hand
          G    D/F#  A7/E  A
Take my whole life  too
    G  A     Bm
For I can't help
 G          D/A  A7   D  D/A
Falling in love with you

[Segunda Parte]

 F#m          C#7
Like a river flows
 F#m           C#7
Surely to the sea
 F#m            C#7
Darling, so it goes
 F#m        B7               Em  A7
Some things    are meant to be

[Terceira Parte]

 D    F#m  Bm  Bm/A
Take my   hand
          G    D/F#  A7/E  A
Take my whole life  too
    G  A     Bm
For I can't help
 G          D/A  A7   D  D/A
Falling in love with you
    G  A     Bm
For I can't help
 G          D/A  A7   D  D/A  D
Falling in love with you
Composição de George David Weiss / George Weiss / Hugo Peretti / Luigi Creatore
Colaboração e revisão:
  • Leandro Sandim
5.047 exibições
  • Simplificar cifra
    • ½ Tom
    • A
    • Bb
    • B
    • C
    • Db
    • D
    • Eb
    • E
    • F
    • F#
    • G
    • Ab
  • Adicionar à lista

    0 comentários

    Mostrar mais comentários

    Conseguiu tocar?

    4 Tocaram 1 Ainda não

    Grave um vídeo tocando Can't Help Falling In Love e mande pra gente!

    00:00 / 00:00
    outros vídeos desta música
    repetir qualidade Automático
    Outros vídeos desta música
    00:00 / 00:00
    Automático
    Capítulos
    • Tocando a Música
    • Apresentação | Equipamentos
    • Acordes Introdução
    • Tocando a Introdução
    • Ensinando Introdução - Tocando Lento
    • Ensinando Introdução - Parte 1 de 2
    • Ensinando Introdução - Parte 2 de 2
    • Acordes Primeira Parte
    • Tocando Primeira Parte
    • Ensinando Primeira Parte - Tocando Lento
    • Ensinando Primeira Parte - Parte 1 de 8
    • Ensinando Primeira Parte - Parte 2 de 8
    • Ensinando Primeira Parte - Parte 3 de 8
    • Ensinando Primeira Parte - Parte 4 de 8
    • Ensinando Primeira Parte - Parte 5 de 8
    • Ensinando Primeira Parte - Parte 6 de 8
    • Ensinando Primeira Parte - Parte 7 de 8
    • Ensinando Primeira Parte - Parte 8 de 8
    • Acordes Segunda Parte
    • Tocando Segunda Parte
    • Ensinando Segunda Parte - Tocando Lento
    • Ensinando Segunda Parte - Parte 1 de 3
    • Ensinando Segunda Parte - Parte 2 de 3
    • Ensinando Segunda Parte - Parte 3 de 3
    • Encerramento

    Cifra Club Pro

    Aproveite o Cifra Club com benefícios exclusivos e sem anúncios
    7 dias grátis
    Cifra Club Pro
    Aproveite o Cifra Club com benefícios exclusivos e sem anúncios
    7 dias grátis
    OK