Cifra Club

Aprenda

For The Heart

Elvis Presley

Cifra: Principal (violão e guitarra)
Tom: D
 D A D F# A D

    Intro:
       Gtr1        .  .        .  .                 .  .        .  .
    D||------------0--0---0----0--0---0-------------0--0---0----0--0---0-----|
    A||------------0--0---0----0--0---0-------------0--0---0----0--0---0-----|
   F#||------------1--1---0----1--1---0-------------1--1---0----1--1---0-----|
    D||------------0--0---0----0--0---0-------------0--0---0----0--0---0-----|
    A||------------2--2---0----2--2---0-------------2--2---0----2--2---0-----|
    D||---3b4--0---0--0---0----0--0---0----3b4--0---0--0---0----0--0---0-----|
     |                                                                       |
     |                                                                       |
     |             Dsus4  D    Dsus4  D             Dsus4  D    Dsus4  D     |
     | Gtr2        .  .        .  .                 .  .        .  .         |
    e||------------3--3---2----3--3---2-------------3--3---2----3--3---2-----|
    B||------------3--3---3----3--3---3-------------3--3---3----3--3---3-----|
    G||------------2--2---2----2--2---2-------------2--2---2----2--2---2-----|
    D||------------0--0---0----0--0---0-------------0--0---0----0--0---0-----|
    A||----------------------------------------------------------------------|
    E||----------------------------------------------------------------------|
             .  .        .  .
    D||------0--0---0----0--0---0----||
    A||------0--0---0----0--0---0----||
   F#||------1--1---0----1--1---0----||
    D||------0--0---0----0--0---0----||
    A||------2--2---0----2--2---0----||
    D||------0--0---0----0--0---0----||
     |                               ||
     |                               ||
     |       Dsus4  D    Dsus4  D    ||
     |       .  .        .  .        ||
    e||------3--3---2----3--3---2----||
    B||------3--3---3----3--3---3----||
    G||------2--2---2----2--2---2----||
    D||------0--0---0----0--0---0----||
    A||------------------------------||
    E||------------------------------||

    If you are playing the Guitar 1 part, the rest of the song is very easy to
    play..... Chords used:
          Asus4    A     Gsus4     G     E    D
    D||---7--------7-----5---------5-----2----0-----||
    A||---7--------7-----5---------5-----2----0-----||
   F#||---8--------7-----6---------5-----3----0-----||
    D||---7--------7-----5---------5-----2----0-----||
    A||---9--------7-----7---------5-----4----0-----||
    D||---7--------7-----5---------5-----2----0-----||

          Gtr 1 play something like the intro...
          D                           D
    Had a dream about you baby, had a dream about me and you
          D     A           G
    Had a dream and woke up crying
               D                     G
    Well I can roll but I just can't rock
            D                     G
    And the time's going by, tick-tock
            D                   A               D
    For the heart, I just can't love no-one but you

             D                               D
    Well I'm high and dry and lonely, I'm as lonely as can be
          D    A          G
    And I stare out of my window
               D                     G
    Well I can play but I just can't win
            D                 G
    And the weather's looking dim
            D                   A               D
    For the heart, I just can't love no-one but you

            G
    For the heart
            D
    For the heart
            D                   E               A
    For the heart, I just can't love no-one but you

            G
    For the heart
            D
    For the heart
            D                   A               D
    For the heart, I just can't love no-one but you

          D                           D
    Had a dream about you baby, had a dream about me and you
          D    A            G
    Had a dream and woke up crying
               D                     G
    Well I can roll but I just can't rock
            D                     G
    And the time's going by, tick-tock
            D                   A               D
    For the heart, I just can't love no-one but you

            G
    For the heart
            D
    For the heart
            D                   E               A
    For the heart, I just can't love no-one but you

            G
    For the heart
            D
    For the heart
            D                   A               D
    For the heart, I just can't love no-one but you
                  G
    Well, for the heart
            D
    For the heart
            D                   E               A
    For the heart, I just can't love no-one but you
                 G
    Yes, for the heart
            D
    For the heart
            D                   A               D
    For the heart, I just can't love no-one but you
Composição de Dennis Linde
Colaboração e revisão:
  • rafael diegas
1.612 exibições
    • ½ Tom
    • A
    • Bb
    • B
    • C
    • Db
    • D
    • Eb
    • E
    • F
    • F#
    • G
    • Ab
  • Adicionar à lista

    0 comentários

    Mostrar mais comentários

    Conseguiu tocar?

    0 Tocaram 0 Ainda não

    Grave um vídeo tocando For The Heart e mande pra gente!

    00:00 / 00:00
    outros vídeos desta música
    repetir qualidade Automático
    Outros vídeos desta música
    00:00 / 00:00
    Automático

    Cifra Club Pro

    Aproveite o Cifra Club com benefícios exclusivos e sem anúncios
    7 dias grátis
    Cifra Club Pro
    Aproveite o Cifra Club com benefícios exclusivos e sem anúncios
    7 dias grátis
    OK