Cifra Club

Jailhouse Rock

Elvis Presley

Tab de baixo: Principal
[Introdução]

Parte 1
G|----------------------------------------------|
D|----------------------------------------------|
A|-6-7--6-7-------------------------------------|
E|----------------------------------------------|

[Primeira parte]

The warden threw a party in the county jail...

Parte 1
G|----------------------------------------------|
D|----------------------------------------------|
A|-6-7--6-7--6-7--6-----------------------------|
E|------------------0--0-0-2-2-3-3--------------|

[Refrão]

Let's rock, everybody, let's rock …

parte 1
G|----------------------------------------------|
D|-------4--------4----------2--------------6---|
A|---4-7------4-7--------2-4---4-2------6-9-----|
E|-5--------5--------0-4-----------4--7---------|

G|----------------------------------------------|
D|-------4----------2---------------------------|
A|---4-7--------2-4---4-2-----------------------|
E|-5--------0-4---------------------------------|

[Segunda parte]

Spider Murphy played the tenor saxophone...

parte 1
G|----------------------------------------------|
D|----------------------------------------------|
A|-6-7--6-7--6-7--6-----------------------------|
E|------------------0--0-2-3--------------------|

[Refrão 2]

Let's rock, everybody, let's rock …

parte 1
G|----------------------------------------------|
D|-------4--------4----------2--------------6---|
A|---4-7------4-7--------2-4---4-2------6-9-----|
E|-5--------5--------0-4-----------4--7---------|

G|----------------------------------------------|
D|-------4----------2---------------------------|
A|---4-7--------2-4---4-2-----------------------|
E|-5--------0-4---------------------------------|





[Terceira parte]

Number forty-seven said to number three …

parte 1
G|----------------------------------------------|
D|----------------------------------------------|
A|-6-7--6-7--6-7--6-----------------------------|
E|------------------0--0-2-3--------------------|

[Refrão 3]

Let's rock, everybody, let's rock …

parte 1
G|----------------------------------------------|
D|-------4--------4----------2--------------6---|
A|---4-7------4-7--------2-4---4-2------6-9-----|
E|-5--------5--------0-4-----------4--7---------|

G|----------------------------------------------|
D|-------4----------2---------------------------|
A|---4-7--------2-4---4-2-----------------------|
E|-5--------0-4-----------4---------------------|

[Solo de guitarra]

Parte 1

G|----------------------------------------------|
D|-------4-5-4--------------2--------------6----|
A|---4-7-------7-4------2-4---4-2------6-9------|
E|-5----------------0-4-----------4--7----------|

G|----------------------------------------------|
D|-------4--------------------------------------|
A|---4-7-----4-2-4---4-2-2----------------------|
E|-5-------0-------0----------------------------|

[Quarta parte]

The sad sack was a sittin' on a block of stone...

parte 1
G|----------------------------------------------|
D|----------------------------------------------|
A|-6-7--6-7--6-7--6-----------------------------|
E|------------------0--0-2-3--------------------|

[Refrão 4]

Let's rock, everybody, let's rock …

parte 1
G|----------------------------------------------|
D|-------4-5-4--------------2--------------6----|
A|---4-7-------7-4------2-4---4-2------6-9------|
E|-5----------------0-4-----------4--7----------|

G|----------------------------------------------|
D|-------4--------------------------------------|
A|---4-7-----4-2-4---4-2------------------------|
E|-5-------0-------0----------------------------|


[Quinta parte]

Shifty Henry said to Bugsy: For Heaven's...

parte 1
G|----------------------------------------------|
D|----------------------------------------------|
A|-6-7--6-7--6-7--6-----------------------------|
E|------------------0--0-2-3--------------------|

[Refrão 5]

Let's rock, everybody, let's rock …

Parte 1 de 2
G|----------------------------------------------|
D|-------4-5-4--------------2--------------6----|
A|---4-7-------7-4------2-4---4-2------6-9------|
E|-5----------------0-4-----------4--7----------|

G|----------------------------------------------|
D|-------4------------------2-------------------|
A|---4-7-----4-2-4---4-2-2----4-2---------------|
E|-5-------0-------0--------------4-------------|

Parte 2 de 2 ( 2x + fade out )
G|----------------------------------------------|
D|----------------------------------------------|
A|------2-4---4-2--------2-4----4-2-------------|
E|--0-4-----0-----4--0-4------0-----4-----------|
exibições 10.855
Composição: Jerry Leiber-Mike Stoller Colaboração e revisão:
  • Getúlio Vasconcelos

0 comentários

mostrar mais comentários

Conseguiu tocar?

1 tocaram 1 ainda não

Grave um vídeo tocando Jailhouse Rock e mande pra gente!

00:00 / 00:00
outros vídeos desta música
repetir qualidade Automático
Outros vídeos desta música
00:00 / 00:00
Automático
Capítulos
  • Tocando a Música
  • Apresentação / Equipamentos
  • Afinação
  • Ensinando Introdução / Primeira Parte
  • Ensinando Refrão
  • Ensinando Segunda Parte / Segundo Refrão
  • Ensinando Terceiro Refrão / Solo
  • Ensinando Quarto e Quinto Refrão
  • Encerramento
OK