Cifra Club

Aprenda

Jolly Green Dumbass

Fenix TX

Cifra: Principal (violão e guitarra)
Já pensou em usar uma coleção de roupas do Cifra Club? Responda as perguntas abaixo e nos ajude nessa missão! →
tom: D
Introdução

e|---------------------------------------------
b|---------------------------------------------
g|-7--9--12---11---9--7----7--9--12--11--14----  2x 
d|---------------------------------------------  
a|-5--7--10---09---7--5----5--7--10--09--12---- 
e|---------------------------------------------


Verso
(*= abafamento)
e|---------------------------------------------------
b|---------------------------------------------------
g|-5-5-5-5-5-5---------------------------------------   2x
d|-5-5-5-5-5-5-7-7-7-7-7-7-5-5-5-5-5-5-7-7-7-7-7-7--- 
a|-3-3-3-3-3-3-7-7-7-7-7-7-5-5-5-5-5-5-7-7-7-7-7-7---
e|-------------5-5-5-5-5-5-3-3-3-3-3-3-5-5-5-5-5-5---
* *   * *   * *   * *   * *   * *   * *   * *

Riff após verso (ponte)


e|------------------------------|
b|------------------------------|
g|-7-9-12-11-9-7--7-9-12-11-9-7-|
d|------------------------------|
a|-5-7-10-09-7-5--5-7-10-09-7-5-|
e|------------------------------|

Refrão

e|-------------------------------|
b|-------------------------------|
g|-----7------7-------7-5-4------|
d|-5-7-7--5-7-7---5-7-7-5-4--5-7-|
a|-5-7-5--5-7-5---5-7-5-3-2--5-7-|
e|-3-5----3-5-----3-5--------3-5-|


Solo


e|---------------------------------|
b|-9b~~(9)-------------------------|
g|-9b~~(9)-----------7^9-7-11-9-7~-|
d|----------------7^9--------------|
a|------------7^9------------------|
e|---------------------------------|

e|------------------------------------------|
b|-7^8^7^8-10-8-7~-7^8^7--------7-----------|
g|------------------------9-7-9---9-7-------|
d|------------------------------------9-7~--|
a|------------------------------------------|
e|------------------------------------------|

e|-14^15^14-12-14-12-10-9-10-9-10-9-5/7-5-3-5-3-2-3-2-0~-|
b|-------------------------------------------------------|
g|-------------------------------------------------------|
d|-------------------------------------------------------|
a|-------------------------------------------------------|
e|-------------------------------------------------------|

e|--2^3^2^0---0-2-0-2-3-2-3-5-3-2-3-2-3-5|
b|----------3----------------------------|
g|---------------------------------------|
d|---------------------------------------|
a|---------------------------------------|
e|---------------------------------------|
Composição de Fenix TX
Colaboração e revisão:
  • Rubem Correa
670 exibições
    • ½ Tom
    • A
    • Bb
    • B
    • C
    • Db
    • D
    • Eb
    • E
    • F
    • F#
    • G
    • Ab
  • Adicionar à lista

    0 comentários

    Ver todos os comentários

    Conseguiu tocar?

    0 Tocaram 0 Ainda não

    Grave um vídeo tocando Jolly Green Dumbass e nos envie!

    00:00 / 00:00
    Outros vídeos desta música
    Repetir Qualidade Automático
    Outros vídeos desta música
    00:00 / 00:00
    Automático

    Cifra Club Pro

    Aproveite o Cifra Club com benefícios exclusivos e sem anúncios
    Cifra Club Pro
    Aproveite o Cifra Club com benefícios exclusivos e sem anúncios
    OK