Cifra Club

Aprenda

Amo o Senhor

Gabriela Rocha

Cifra: Principal (violão e guitarra)
Tom: A
[Intro]

     F#m       D9         A          E
E|---17-16-14-12-14-12-------------------------|
B|---------------------15-14-12-10-12-10-9-10--|
G|---------------------------------------------|
D|---------------------------------------------|
A|---------------------------------------------|
E|---------------------------------------------|

A           E/G#
  Amo o Senhor
F#m           C#/F
   Meu salvador
D9        A/C#
    Anelo tê-lo
B/D#              Esus  E
    Bem junto a mim
A            E/G#  F#m
  Minha esperança é
       C#/F        D9         A/C#
Tua palavra que jamais desamparou
   Bm       C#m        D9
Aquele que busca Tua face
    E4  E
E quer

            A
Viver para Ti
              E/G#
Pensar só em Ti
                  A/G
Romper com as barreiras
            D9
Do mundo aqui
            A               E/G#
Voar com o Pai nas asas da fé
            A/G               D9
E ser revestido de glória e poder
          A
Amo o Senhor

( D9  A/C#  Bm  E/G#  A )

     F#m       D9         A          E
E|---17-16-14-12-14-12-------------------------|
B|---------------------15-14-12-10-12-10-9-10--|
G|---------------------------------------------|
D|---------------------------------------------|
A|---------------------------------------------|
E|---------------------------------------------|

A           E/G#
  Amo o Senhor
F#m           C#/F
   Meu salvador
D9        A/C#
    Anelo tê-lo
B/D#              Esus  E
    Bem junto a mim
A            E/G#  F#m
  Minha esperança é
       C#/F        D9         A/C#
Tua palavra que jamais desamparou
   Bm       C#m        D9
Aquele que busca Tua face
    E4  E
E quer

            A
Viver para Ti
              E/G#
Pensar só em Ti
                  A/G
Romper com as barreiras
            D9
Do mundo aqui
            A               E/G#
Voar com o Pai nas asas da fé
            A/G               D9
E ser revestido de glória e poder
          A
Amo o Senhor

            A
Viver para Ti
              E/G#
Pensar só em Ti
                  A/G
Romper com as barreiras
            D9
Do mundo aqui
            A               E/G#
Voar com o Pai nas asas da fé
            A/G               D9
E ser revestido de glória e poder
          (Cai em F#m)
Amo o Senhor

     F#m       D9         A          E
E|---17-16-14-12-14-12----------------------------|
B|---------------------15-14-12-10-12-------------|
G|------------------------------------------------|
D|------------------------------------------------|
A|------------------------------------------------|
E|------------------------------------------------|

     F#m       D9         A          E
E|---17-16-14-12-14-12----------------------------|
B|---------------------15-14-15-17-12-------------|
G|------------------------------------------------|
D|------------------------------------------------|
A|------------------------------------------------|
E|------------------------------------------------|

     F#m       D9         A          E           D9
E|---17-16-14-12-14-12-----------------------------|
B|---------------------15-14-12-10-12-10-9-10------|
G|-------------------------------------------------|
D|-------------------------------------------------|
A|-------------------------------------------------|
E|-------------------------------------------------|

            A
Viver para Ti
              E/G#
Pensar só em Ti
                  A/G
Romper com as barreiras
            D9
Do mundo aqui
            A               E/G#
Voar com o Pai nas asas da fé
            A/G               D9
E ser revestido de glória e poder

            A
Viver para Ti
              E/G#
Pensar só em Ti
                  A/G
Romper com as barreiras
            D9
Do mundo aqui
            A               E/G#
Voar com o Pai nas asas da fé
            A/G               D9
E ser revestido de glória e poder

[Final] F#m  D9  A  E
        F#m  D9  A  E
        F#m
Composição de Emerson Pinheiro / Fernanda Brum
Colaboração e revisão:
  • Daniel Leite
5.461 exibições
    • ½ Tom
    • A
    • Bb
    • B
    • C
    • Db
    • D
    • Eb
    • E
    • F
    • F#
    • G
    • Ab
  • Adicionar à lista

    0 comentários

    Mostrar mais comentários
    00:00 / 00:00
    outros vídeos desta música
    repetir qualidade Automático
    Outros vídeos desta música
    00:00 / 00:00
    Automático
    OK