Cifra Club

Lugar Secreto

Gabriela Rocha

Cifra: Completa (violão e guitarra)
tom: C
[Intro] F7M  Am  G
        F7M  Am  G

[Solo da Introdução]

E|-8-7-8-----8---8------------------------------------|
B|--------8----6----5---------------------------------|
G|--------------------5-7-----------------------------|
D|----------------------------------------------------|
A|----------------------------------------------------|
E|----------------------------------------------------|

[Primeira Parte]

F7M       Am                G
    Tu és tudo que eu mais quero
F7M       Am        G
    O meu fôlego Tu és
F7M         Am          G
    Em Teus braços é o meu lugar
       F7M    Am    G
Estou aqui, estou aqui

F7M         Am          G
    Pai, eu amo sua presença
F7M        Am              G
    Teu sorriso é vida em mim
F7M      Am            G
    Eu seguro em suas mãos
          F7M     Am    G
Confio em Ti, confio em Ti

[Refrão]

              F7M                 Dm
Quero ir mais fundo, leva-me mais perto
              Am               Em7
Onde eu Te encontro no lugar secreto
                F7M               Dm           Am   G
Aos Teus pés me rendo, pois a Tua glória quero ver

[Base Solo] F7M  Dm  Am  Em7
            F7M  Dm  Am  G

[Solo]

E|----------------------------------------------------|
B|-----5-8-5-5------5-8-5-5------5-8-10-10--10-12-5-5-|
G|-5-7----------5-7----------5-7----------------------|
D|----------------------------------------------------|
A|----------------------------------------------------|
E|----------------------------------------------------|

[Primeira Parte]

F7M         Am          G
    Pai, eu amo sua presença
F7M        Am              G
    Teu sorriso é vida em mim
F7M      Am            G
    Eu seguro em suas mãos
          F7M     Am    G
Confio em Ti, confio em Ti

[Refrão]

              F7M                 Dm
Quero ir mais fundo, leva-me mais perto
              Am               Em7
Onde eu Te encontro no lugar secreto
                F7M               Dm           Am   G
Aos Teus pés me rendo, pois a Tua glória quero ver

[Segunda Parte]

                 F7M
Tudo que eu mais quero é Te ver
                   Dm
Me envolva com Tua glória e poder
         Am                    Em7
Tua majestade é real, Tua voz ecoa em meu ser

[Refrão]

              F7M                 Dm
Quero ir mais fundo, leva-me mais perto
              Am               Em7
Onde eu Te encontro no lugar secreto
                F7M               Dm           Am   G
Aos Teus pés me rendo, pois a Tua glória quero ver


[Base Solo] F7M  Dm  Am  Em7
            F7M  Dm  Am  G  F7M

[Solo]

E|----------------------------------------------------|
B|-----5-8-5-5------5-8-5-5------5-8-10-10--10-12-5-5-|
G|-5-7----------5-7----------5-7----------------------|
D|----------------------------------------------------|
A|----------------------------------------------------|
E|----------------------------------------------------|
00:00 / 00:00
Outros vídeos desta música
Repetir
Outros vídeos desta música
Composição de Gabriela Rocha / Hananiel Eduardo
78.974 exibições
  • Simplificar cifra
    • ½ Tom
    • A
    • Bb
    • B
    • C
    • Db
    • D
    • Eb
    • E
    • F
    • F#
    • G
    • Ab
  • Adicionar à lista

    0 comentários

    Ver todos os comentários
    00:00 / 00:00
    Capítulos
    • Tocando a música
    • Apresentação / Equipamentos
    • Acordes da música
    • Tocando Introdução e Primeira Parte
    • Ritmo da música
    • Dicas da música
    • Tocando Refrão
    • Encerramento

    Cifra Club Pro

    Aproveite o Cifra Club com benefícios exclusivos e sem anúncios
    Cifra Club Pro
    Aproveite o Cifra Club com benefícios exclusivos e sem anúncios
    OK