Cifra Club

Aprenda

Meu Salvador

Gabriela Rocha

Cifra: Principal (violão e guitarra)
tom: E
[Intro] E  A  E 
        B  C#m  B  
        A  E  B  C#m  B  
        A  E  B  C#m  B  
        A  E  B  C#m  B  
        A  E  B 

E|------------------------------------------|
B|-10-10-12-9-9-12-------------9------------|
G|-----------------11-11--9-11---11-9-------|
D|------------------------------------------|
A|------------------------------------------|
E|------------------------------------------|

E|------------------------------------------|
B|-10-10-12-9-9-12-------------9------------|
G|-----------------11-11--9-11---11-9-------|
D|------------------------------------------|
A|------------------------------------------|
E|------------------------------------------|

E|------------------------------------------|
B|-10-10-12-9-9-12-------------9------------|
G|-----------------11-11--9-11---11-9-------|
D|------------------------------------------|
A|------------------------------------------|
E|------------------------------------------|

E|------------------------------------------|
B|-10-10-12-9-9-12-------------9------------|
G|-----------------11-11--9-11---11-9-------|
D|------------------------------------------|
A|------------------------------------------|
E|------------------------------------------|

          A          E
O mundo não é o meu lugar
           C#m          B
No céu de luz eu vou morar
            A            E
Eu vou cumprir minha missão
          C#m          B
Levar ao mundo a salvação

[Refrão]

 A/C#  B/D#    E
Jesus, és meu salvador
       A     C#m        B
Tudo que eu sou vem de ti
                  A    B          C#m      B/D#
Eu vou gritar ao mundo     que tu és amor
        A/E              B
Que contigo eu vou habitar no céu pra sempre

( A  E  B  C#m  B )
( A  E  B )

E|------------------------------------------|
B|-10-10-12-9-9-12-------------9------------|
G|-----------------11-11--9-11---11-9-------|
D|------------------------------------------|
A|------------------------------------------|
E|------------------------------------------|

E|------------------------------------------|
B|-10-10-12-9-9-12-------------9------------|
G|-----------------11-11--9-11---11-9-------|
D|------------------------------------------|
A|------------------------------------------|
E|------------------------------------------|

              A             E 
E hoje posso ser livre então
       C#m              B 
A sua morte não foi em vão
           A            E 
Os meus pecados ele lavou
            C#m          B
Na cruz morreu e me salvou

[Refrão] 

 A/C#  B/D#    E
Jesus, és meu salvador
       A     C#m        B
Tudo que eu sou vem de ti
                  A    B          C#m      B/D#
Eu vou gritar ao mundo     que tu és amor
        A/E    A         B
Que contigo eu vou habitar no céu pra sempre

( A  E  B  F#m )
( A  E  B )

E|------------------------------------------|
B|---12--9--8-------------------------------|
G|-9----------------------------------------|
D|------------------------------------------|
A|------------------------------------------|
E|------------------------------------------|

     A     E          B         F#m
Pra sempre    lá no céu eu estarei
     A     E         B
Pra sempre    vou viver com o meu rei
     A     E         B         F#m
Pra sempre    santo santo vou cantar
      A    E         B
Com Cristo     para sempre vou morar 

[Final] A  E  B  C#m  B 
        A  E  B  C#m  B 
        A  E  B  C#m  B  
        A  E  B

E|------------------------------------------|
B|-10-10-12-9-9-12-------------9------------|
G|-----------------11-11--9-11---11-9-------|
D|------------------------------------------|
A|------------------------------------------|
E|------------------------------------------|
Composição de Hananiel Eduardo
Colaboração e revisão:
107.518 exibições
    • ½ Tom
    • A
    • Bb
    • B
    • C
    • Db
    • D
    • Eb
    • E
    • F
    • F#
    • G
    • Ab
  • Adicionar à lista

    0 comentários

    Ver todos os comentários
    00:00 / 00:00
    Outros vídeos desta música
    Repetir Qualidade Automático
    Outros vídeos desta música
    00:00 / 00:00
    Automático

    Cifra Club Pro

    Aproveite o Cifra Club com benefícios exclusivos e sem anúncios
    Cifra Club Pro
    Aproveite o Cifra Club com benefícios exclusivos e sem anúncios
    OK