Cifra Club

Welcome To Paradise

Green Day

Cifra: Principal
exibições 109.819
Tom: A
[Intro]

E|-------------------------------------------|
B|-------------------------------------------|
G|-----9--X-9-9--9-9--7-7--------------------|
D|-----9--X-9-9--9-9--7-7---7--7-7-7---------|
A|-----7--X-7-7--7-7--5-5---7--7-7-7---------|
E|--------------------------5--5-5-5---------|

[Verse]

E|-------------------------------------------------------------|
B|-------------------------------------------------------------|
G|-----9--9--9-9-9--7--7-7--7--7-7-7-9--X-9-9--X-9--9--9-9-----|
D|-----9--9--9-9-9--7--7-7--7--7-7-7-9--X-9-9--X-9--9--9-9-----|
A|-----7--7--7-7-7--5--5-5--5--5-5-5-7--X-7-7--X-7--7--7-7-----|
E|-------------------------------------------------------------|

E|------------------------------------------------------------------|
B|------------------------------------------------------------------|
G|-----9--9--9-9-9--7--7-7--7--7-7-7--------------------------------|
D|-----9--9--9-9-9--7--7-7--7--7-7-7--5--5--5-5---9--9-9-9-9-9-9-9--|
A|-----7--7--7-7-7--5--5-5--5--5-5-5--5--5--5-5---9--9-9-9-9-9-9-9--|
E|------------------------------------3--3--3-3---7--7-7-7-7-7-7-7--|

E|-------------------------------------------------------------|
B|-------------------------------------------------------------|
G|-----9--9--9-9-9--7--7-7--7--7-7-7-9--X-9-9--X-9--9--9-9-----|
D|-----9--9--9-9-9--7--7-7--7--7-7-7-9--X-9-9--X-9--9--9-9-----|
A|-----7--7--7-7-7--5--5-5--5--5-5-5-7--X-7-7--X-7--7--7-7-----|
E|-------------------------------------------------------------|

E|-----------------------------------------------------------------------|
B|-----------------------------------------------------------------------|
G|-----9--9--9-9-9--7--7-7--7--7-7-7-------------------------------------|
D|-----9--9--9-9-9--7--7-7--7--7-7-7--5--5--5-5---9--9-9-9-9-9-9-9-------|
A|-----7--7--7-7-7--5--5-5--5--5-5-5--5--5--5-5---9--9-9-9-9-9-9-9-------|
E|------------------------------------3--3--3-3---7--7-7-7-7-7-7-7-------|

E|---------------------------------------------|
B|---------------------------------------------|
G|---------------------------------------------|
D|-5--5--5-5---9--9-9-9-9-9-9-9-9-9-9-9-9-9-9-9|
A|-5--5--5-5---9--9-9-9-9-9-9-9-9-9-9-9-9-9-9-9|
E|-3--3--3-3---7--7-7-7-7-7-7-7-7-7-7-7-7-7-7-7|

[Chorus]

E|------------------------------------------------------------|
B|------------------------------------------------------------|
G|------------------------------------------5--5-5-5--5-5-5---|
D|--2--2--2-2--5--5-5-5--5-5-5--7--7--7-7---5--5-5-5--5-5-5---|
A|--2--2--2-2--5--5-5-5--5-5-5--7--7--7-7---3--3-3-3--3-3-3---|
E|--0--0--0-0--3--3-3-3--3-3-3--5--5--5-5---------------------|

E|-----------------------------------------------------------|
B|-----------------------------------------------------------|
G|-----------------------------------------------------------|
D|--2--2--2-2--5--5-5-5--5-5-5--9--9--9-9-9-9--9-9--9-9-9-9--|
A|--2--2--2-2--5--5-5-5--5-5-5--9--9--9-9-9-9--9-9--9-9-9-9--|
E|--0--0--0-0--3--3-3-3--3-3-3--7--7--7-7-7-7--7-7--7-7-7-7--|

E|------------------------------|
B|------------------------------|
G|------------------------------|
D|--5--5--5---9-----------------|
A|--5--5--5---9-----------------|
E|--3--3--3---7-----------------|

[Bridge]

E|--------------------------------------------------------|
B|--------------------------------------------------------|
G|--------------------------------------------------------|
D|--------------------------------------------------------|
A|---7~~-----------------------------10-9-8-7~------------|
E|-----------7----7h8-7-5-7-7h8-7-------------------------|

E|--------------------------------------------------------|
B|-------9---------12------11-------10--------------------|
G|--------------------------------------------------------|
D|-----9--------12-------11------10-----------------------|
A|---7-------10--------9-------8--------------------------|
E|--------------------------------------------------------|
  
E|--------------------------------------------------------|
B|-------9---------12--------11--------10-----------------|
G|--------------------------------------------------------|
D|-----9---9----12----12---11---11---10---10--------------|
A|---7-------10----------9---------8----------------------|
E|--------------------------------------------------------|

E|--------------------------------------------------------|
B|---9-9-12-12-11-11-10-10-10-----------------------------|
G|--------------------------------------------------------|
D|---9-9-12-12-11-11-10-10-10-----------------------------|
A|---7-7-10-10--9--9--8--8--8-----------------------------|
E|--------------------------------------------------------|

[Verse]

E|-------------------------------------------------------------|
B|-------------------------------------------------------------|
G|-----9--9--9-9-9--7--7-7--7--7-7-7-9--X-9-9--X-9--9--9-9-----|
D|-----9--9--9-9-9--7--7-7--7--7-7-7-9--X-9-9--X-9--9--9-9-----|
A|-----7--7--7-7-7--5--5-5--5--5-5-5-7--X-7-7--X-7--7--7-7-----|
E|-------------------------------------------------------------|

E|-----------------------------------------------------------------------|
B|-----------------------------------------------------------------------|
G|-----9--9--9-9-9--7--7-7--7--7-7-7-------------------------------------|
D|-----9--9--9-9-9--7--7-7--7--7-7-7--5--5--5-5---9--9-9-9-9-9-9-9-------|
A|-----7--7--7-7-7--5--5-5--5--5-5-5--5--5--5-5---9--9-9-9-9-9-9-9-------|
E|------------------------------------3--3--3-3---7--7-7-7-7-7-7-7-------|

E|-------------------------------------------------------------|
B|-------------------------------------------------------------|
G|-----9--9--9-9-9--7--7-7--7--7-7-7-9--X-9-9--X-9--9--9-9-----|
D|-----9--9--9-9-9--7--7-7--7--7-7-7-9--X-9-9--X-9--9--9-9-----|
A|-----7--7--7-7-7--5--5-5--5--5-5-5-7--X-7-7--X-7--7--7-7-----|
E|-------------------------------------------------------------|

E|-----------------------------------------------------------------------|
B|-----------------------------------------------------------------------|
G|-----9--9--9-9-9--7--7-7--7--7-7-7-------------------------------------|
D|-----9--9--9-9-9--7--7-7--7--7-7-7--5--5--5-5---9--9-9-9-9-9-9-9-------|
A|-----7--7--7-7-7--5--5-5--5--5-5-5--5--5--5-5---9--9-9-9-9-9-9-9-------|
E|------------------------------------3--3--3-3---7--7-7-7-7-7-7-7-------|

E|---------------------------------------------|
B|---------------------------------------------|
G|---------------------------------------------|
D|-5--5--5-5---9--9-9-9-9-9-9-9-9-9-9-9-9-9-9-9|
A|-5--5--5-5---9--9-9-9-9-9-9-9-9-9-9-9-9-9-9-9|
E|-3--3--3-3---7--7-7-7-7-7-7-7-7-7-7-7-7-7-7-7|

[Chorus]

E|------------------------------------------------------------|
B|------------------------------------------------------------|
G|------------------------------------------5--5-5-5--5-5-5---|
D|--2--2--2-2--5--5-5-5--5-5-5--7--7--7-7---5--5-5-5--5-5-5---|
A|--2--2--2-2--5--5-5-5--5-5-5--7--7--7-7---3--3-3-3--3-3-3---|
E|--0--0--0-0--3--3-3-3--3-3-3--5--5--5-5---------------------|

E|-----------------------------------------------------------|
B|-----------------------------------------------------------|
G|-----------------------------------------------------------|
D|--2--2--2-2--5--5-5-5--5-5-5--9--9--9-9-9-9--9-9--9-9-9-9--|
A|--2--2--2-2--5--5-5-5--5-5-5--9--9--9-9-9-9--9-9--9-9-9-9--|
E|--0--0--0-0--3--3-3-3--3-3-3--7--7--7-7-7-7--7-7--7-7-7-7--|

E|------------------------------------|
B|------------------------------------|
G|------------------------------------|
D|--5--5--5---9-----------------------|
A|--5--5--5---9-----------------------|
E|--3--3--3---7-----------------------|

[Final]

E|-------------------------------------------|
B|-------------------------------------------|
G|-----9--X-9-9--9-9--7-7--------------------|
D|-----9--X-9-9--9-9--7-7---7--7-7-7---------|
A|-----7--X-7-7--7-7--5-5---7--7-7-7---------|
E|--------------------------5--5-5-5---------|
Acordes para:
    Composição: Billie Joe Armstrong / Green DayColaboração e revisão:
    • Marcos Paulo
    • Alexandre Miranda
    • João Neves

    0 comentários

      mostrar mais comentários

      Conseguiu tocar?

      14tocaram0ainda não

      Grave um vídeo tocando Welcome To Paradise e mande pra gente!

      00:00 / 00:00
      outros vídeos desta música
      repetirqualidadeautomática
      Outro vídeos desta música
        00:00 / 00:00
        automática
        OK