Cifra Club

Are You In?

Incubus

Cifra: Principal
exibições 30.868
Tom: A
<7> - Natural Harmonic
/ - Slide 
b - Bend up/down
h - Hammer on
p - Pull off

Effects used: Delay, Echo/Delay, Volume swells by pedal or volume knob
(easier with pedal), I use wah halfway cocked to accentuate the treble/mids
for the chorus chords and verse harmonics. Song is slightly distorted all the
way through.

Intro: These chords played w/volume swells 

e|-12--|--9--|--5--|--4--|--2--|
B|-10--|--7--|--3--|--2--|--2--|
G|-11--|--7--|--4--|--2--|--2--|
D|-----|-----|-----|-----|-----|
A|-----|-----|-----|-----|-----|
E|-----|-----|-----|-----|-----|

Verse:

e|-------------------<12>-------|
B|-------------<12>--------<12>-|
G|------------------------------|
D|----<7>-----------------------|
A|-<7>--------------------------|
E|------------------------------|

Chorus:

e|-12~~-9~~-|------|
B|-10~~-7~~-|-10~~-|
G|-11~~-7~~-|-11~~-|
D|----------|-12~~-|
A|----------|------|
E|----------|------|

Solo: Just a Bmin/Dmaj pentatonic

e|------------------------|
G|------------------------|
B|------------------------|
D|------7-9b11-11r9-7-----|
A|-7h9----------------7-9-|
E|------------------------|
 
e|------------------------------------|
B|------10----------------------------|
G|-9b11---11r9-7----------------------|
D|-----------------9-7----------------|
A|----------------------9-------------|
E|-------------------------7----------|
*on this part, let the 10 on the B string ring whilst you release the bend on the G, like a pedal steel kinda thing.

e|-------------------|
B|-------------------|
G|-------------------|
D|-------------7-----|
A|------7~-7h9----9--|
E|-7h9---------------|

Then back to verse
Acordes para:

    0 comentários

      mostrar mais comentários

      Conseguiu tocar?

      0tocaram0ainda não

      Grave um vídeo tocando Are You In? e mande pra gente!

      00:00 / 00:00
      outros vídeos desta música
      repetirqualidadeautomática
      Outro vídeos desta música
        00:00 / 00:00
        automática
        OK