Cifra Club

Talk show on mute

Incubus

Cifra: Principal
exibições 60.496
Tom: C
a musica se baseia nessa intro
------------------------------------------------------------------------
-----------------------------------------------------------------------
--------------------0-----------------------------------0-------------
---2--2--2--2---------2-------------2--2--2--2---------2---0---
---3--3--0--3---------------0------3--3--0--3--------------------
------------------------------------------------------------------------

-----------------------------------------------------------------------------
------------------------------------------------------------------------------
--------------------0----------------------------------------4--4-----------
---2--2--0--2--------2---0-----------2--2--0--2-------2--2----0-----
---0--0--0--0-------------------------0--0--0--0-----------------0----
-----------------------------------------------------------------------------


refrao q e diferente 
sempre dois compassos em cada acorde 

| F7+ | G |



Take a bow
Pack on powder
Wash 'em out with buzzing lights
Pay an audience to care
'Impress me' personality

Still and transfixed
The electric sheep are dreaming of your face
Enjoy you from the chemical
Comfort all America

Come one, come all
Into nineteen-eightyfour
Yeah, three, two, one...
Lights! camera! transaction!

Quick, Your time is almost up
Make 'em forget that they're the moth
Edging in towards the flame
Burn into obscurity

Still and transfixed
The electric sheep but dreaming up your fate
We judge you from the card castle
Comfort all America

Come one, come all
Into nineteen-eightyfour
Yeah, three, two, one...
Lights! camera! transaction!

Your foundation is canyoning
Fault lines should be worn with pride
I hate to say it 
But you're so much more
You're so much more endearing with the sound turned off
Acordes para:

    0 comentários

      mostrar mais comentários

      Conseguiu tocar?

      0tocaram0ainda não

      Grave um vídeo tocando Talk show on mute e mande pra gente!

      00:00 / 00:00
      outros vídeos desta música
      repetirqualidadeautomática
      Outro vídeos desta música
        00:00 / 00:00
        automática
        OK