Cifra Club

Talk show on mute

Incubus

Cifra: Principal (violão e guitarra)
tom: C
[Intro] C  Am  G

E|----------------------------------------------------------------|
B|----------------------------------------------------------------|
G|--------------------0-----------------------------0------0------|
D|---2--2--2--2---------2------------2--2--2--2--------2---0------|
A|---3--3--0--3---------------0------3--3--0--3-------------------|
E|----------------------------------------------------------------|

E|----------------------------------------------------------------|
B|----------------------------------------------------------------|
G|--------------------0-------------------------------------------|
D|---2--2--0--2--------2---0-----------2--2--0--2-------0-0-0-----|
A|---0--0--0--0-------------------------0--0--0--0------2-2-2-----|
E|------------------------------------------------------3-3-3-----|
 
C 
 Take a bow pack on powder 
Am                       G
 Wash 'Amout with burning lies 
C 
 Did it all to instigate 
Am                   G
 That's your personality 
 
C  
  Still and transfixed
Am                                   G
 The electric sheep are dreaming of your face 
C 
 Enjoyment from the chemical 
Am
 Comfort all America 
 
F                   G 
 Come one, come all 
             Em7 
 Into nineteen-eightyfour
F                    G 
 Yeah, three, two, one 
        Bb      G 
 Lights! Camera! Transaction!
 
C 
 Quick, your time is almost up 
Am                          G    
 Make 'em forget that they're the moth 
C 
 Edging in towards the flame 
Am               G
 Burn into obscurity 
 
C  
  Still and transfixed
Am                                   G
 The electric sheep are dreaming of your face 
C 
 We judge you from the card castle
Am
 Comfort all America 
 
F                 G 
 Come one, come all 
       Em7
 Into nineteen-eightyfour
F                    G 
 Yeah, three, two, one 
         Bb       G 
 Lights! Camera... yeah!
 
F                 G 
 Come one, come all 
             Em7 
 Into nineteen-eightyfour
F                    G 
 Yeah, three, two, one 
        Bb      G 
 Lights! Camera! Transaction!
 
[Solo] C  Am 
       F  G

F       G   
 Ooohhh... yeahh
F                 G 
 Come one, come all 
             Em7 
 Into nineteen-eightyfour
F                    G 
 Yeah, three, two, one 
         Bb      G 
 Lights! Camera! Transaction!

C  Am  F
   Oohhhhh...
 
C 
 Your foundation is canyoning
Am
 Fault lines should be worn with pride
C                                  Am
 I hate to say it But you're so much more
                F7+ 
 You're so much more
 endearing with the sound turned off
00:00 / 00:00
Outros vídeos desta música
Repetir
Outros vídeos desta música
Composição de Ben Kenney / Brandon Boyd / Chris DJ Kilmore / Jose Antonio Pasillas II / Mike Einziger
Colaboração e revisão:
  • Kelcey Melo
  • Paulo Santarém
64.645 exibições
    • ½ Tom
    • A
    • Bb
    • B
    • C
    • Db
    • D
    • Eb
    • E
    • F
    • F#
    • G
    • Ab
  • Adicionar à lista

    0 comentários

    Ver todos os comentários

    Entre para oCifra Club PRO

    Tenha acesso a benefícios exclusivos no App e no Site

    • Chega de anúncios

    • Prioridade de compra em lançamentos

    • Mais recursos no app do Afinador

    • Atendimento Prioritário

    • Descontos nos produtos Cifra Club

    • Ajude a produzir mais conteúdo

    00:00 / 00:00

    Cifra Club Pro

    Aproveite o Cifra Club com benefícios exclusivos e sem anúncios
    Cifra Club Pro
    Aproveite o Cifra Club com benefícios exclusivos e sem anúncios
    OK