Cifra Club

Deus Me Livre Quem Me Dera

Israel e Rodolffo

Cifra: Principal (violão e guitarra)
tom: C
[Intro] 

   C9         D9(11)   Em7
E|------3-2---------------------------------|
B|-3----------3--3-5------------------------|
G|-0----------0------2/4--------------------|
D|-2----------4-----------------------------|
A|-3----------5-----------------------------|
E|------------------------------------------|

E|-3/5p3p0----------------------------------|
B|----------3/5p3p0-------------------------|
G|-------------------2/4p2-0----------------|
D|------------------------------------------|
A|------------------------------------------|
E|------------------------------------------|

   C9         D9(11)   
E|------3-2---------------------------------|
B|-3----------3--3-5------------------------|
G|-0----------0-----------------------------|
D|-2----------4-----------------------------|
A|-3----------5-----------------------------|
E|------------------------------------------|

   Em7   
  H.N. . .   .  .  .  .  .  . 
E|--------------------------12--------------|
B|-7-----7---12----------12-----------------|
G|---7----------12----12--------------------|
D|-----7-----------12-----------------------|
A|------------------------------------------|
E|------------------------------------------|

[Primeira Parte]

   C9             D9(11)
Olhar não tira pedaço
    Em7
Também não é crime querer
C9              D9(11)
Eu me perderia fácil
         Em7                         C9
Nesse pedaço de mal caminho que é você
            D9(11)       Em7
Então não atiça meus hormônios
                               C9
Porque já fiz amor contigo em sonho
     D9(11)                       Em7
Mas deve ser bom mesmo é na realidade

[Refrão]

         C
Deus me livre
             D9(11)
Mas quem me dera nós dois
          Bm7
Quatro paredes
                     Em7
Numa cama dando uns pega
         C
Deus me livre
             D9(11)
Mas quem me dera
            Bm7
Vai que dá certo
                          Em7
Eu valho pouco e cê não presta

         C
Deus me livre
             D9(11)
Mas quem me dera nós dois
          Bm7
Quatro paredes
                     Em7
Numa cama dando uns pega
         C
Deus me livre
             D9(11)
Mas quem me dera
            Bm7
Vai que dá certo
                          Em7
Eu valho pouco e cê não presta

( C  D9(11)  Bm7  Em7 )
( C  D9(11)  Bm7  Em7 )

[Primeira Parte]

   C9             D9(11)
Olhar não tira pedaço
    Em7
Também não é crime querer
C9              D9(11)
Eu me perderia fácil
         Em7                         C9
Nesse pedaço de mal caminho que é você
            D9(11)       Em7
Então não atiça meus hormônios
                               C9
Porque já fiz amor contigo em sonho
     D9(11)                       Em7
Mas deve ser bom mesmo é na realidade

[Refrão]

         C
Deus me livre
             D9(11)
Mas quem me dera nós dois
          Bm7
Quatro paredes
                     Em7
Numa cama dando uns pega
         C
Deus me livre
             D9(11)
Mas quem me dera
            Bm7
Vai que dá certo
                          Em7
Eu valho pouco e cê não presta

         C
Deus me livre
             D9(11)
Mas quem me dera nós dois
          Bm7
Quatro paredes
                     Em7
Numa cama dando uns pega
         C
Deus me livre
             D9(11)
Mas quem me dera
            Bm7
Vai que dá certo
                          Em7
Eu valho pouco e cê não presta

[Final] C  D9(11)  Bm7  Em7
00:00 / 00:00
Outros vídeos desta música
Repetir
Outros vídeos desta música
Compositor não encontrado.
Colaboração e revisão:
  • Thiago Almeida
  • Manoel Neto
23.323 exibições
    • ½ Tom
    • A
    • Bb
    • B
    • C
    • Db
    • D
    • Eb
    • E
    • F
    • F#
    • G
    • Ab
  • Adicionar à lista

    0 comentários

    Ver todos os comentários
    00:00 / 00:00

    Cifra Club Pro

    Aproveite o Cifra Club com benefícios exclusivos e sem anúncios
    Cifra Club Pro
    Aproveite o Cifra Club com benefícios exclusivos e sem anúncios
    OK