Cifra Club

Aprenda

Veterinária

Israel e Rodolffo

Cifra: Principal (violão e guitarra)
Tom: C
[Intro] C9  G  Dm7

E|------------------------------------------|
B|----8-8-8\5-5\3-3/5-5-------------/6-5-3--|
G|-/5---------------------------------------|
D|----9-9-9\5-5\3-3\5-5--/5-5-5-5-5---------|
A|------------------------------------------|
E|------------------------------------------|

E|------------------------------------------|
B|-3-3-1-3/5-5/6-6--------------------------|
G|------------------------------------------|
D|-3-3-2-3/5-5/7-7--------------------------|
A|------------------------------------------|
E|------------------------------------------|

[Primeira Parte]

    C9                              G
Já tava mesmo decidido abandonar o curso
                                       Dm7
Nunca foi minha praia usar terno e gravata
                              C/E  
Me desculpa, oh, pai, essa decepção
F
  Mas preciso seguir meu coração

[Pré-Refrão]

C9
   Eu me apaixonei na menina
                 G
Da camionete vermelha

De calça jeans e botina

Jeito de menina roceira
   Dm7
Esse cabelo preto
        C/E      F
Ai, ai, ai, meu pai

Nasci foi pra ser fazendeiro

[Refrão]

    C                      G
Eu tô apaixonado na veterinária
                               Dm7
Ela é o queijo e eu sou a goiabada
                            C/E
Ela, a tampa, e eu sou a panela
F
  Pode apostar, eu vou casar com ela

C                            G
  Eu tô apaixonado na veterinária
                               Dm7
Ela é o queijo e eu sou a goiabada
                               C/E   F
Então é isso, pra encerrar nossa conversa

Eu vou morar na roça, te dar uns neto e cuidar dela

[Solo] C  G  Dm7  F

E|------------------------------------------|
B|----8-8-8\5-5\3-3/5-5-------------/6-5-3--|
G|-/5---------------------------------------|
D|----9-9-9\5-5\3-3\5-5--/5-5-5-5-5---------|
A|------------------------------------------|
E|------------------------------------------|

E|------------------------------------------|
B|-3-3-1-1/3--3-3-3-3-3/6-5-3---------------|
G|------------------------------------------|
D|-3-3-2-2/3--3-3-3-3-3/7-5-3---------------|
A|------------------------------------------|
E|------------------------------------------|

E|------------------------------------------|
B|-3-3-1-1/3------3-----5-----6------10-----|
G|------------------------------------------|
D|-3-3-2-2/3--2/3---3/5---5/7----7/10-------|
A|------------------------------------------|
E|------------------------------------------|

[Pré-Refrão]

C9
   Eu me apaixonei na menina
                 G
Da camionete vermelha

De calça jeans e botina

Jeito de menina roceira
   Dm7
Esse cabelo preto
        C/E      F
Ai, ai, ai, meu pai

Nasci foi pra ser fazendeiro

[Refrão]

    C                      G
Eu tô apaixonado na veterinária
                               Dm7
Ela é o queijo e eu sou a goiabada
                            C/E
Ela, a tampa, e eu sou a panela
F
  Pode apostar, eu vou casar com ela

C                            G
  Eu tô apaixonado na veterinária
                               Dm7
Ela é o queijo e eu sou a goiabada
                               C/E   F
Então é isso, pra encerrar nossa conversa

Eu vou morar na roça, te dar uns neto e cuidar dela

[Solo] C  G 

E|------------------------------------------|
B|----8-8-8\5-5\3-3/5-5-------------/6-5-3--|
G|-/5---------------------------------------|
D|----9-9-9\5-5\3-3\5-5--/5-5-5-5-5---------|
A|------------------------------------------|
E|------------------------------------------|

E|------------------------------------------|
B|-3-3-1-1/3--3-3-3-3-3/6-5-3---------------|
G|------------------------------------------|
D|-3-3-2-2/3--3-3-3-3-3/7-5-3---------------|
A|------------------------------------------|
E|------------------------------------------|

E|------------------------------------------|
B|-3-3-1-1/3------3-----5-----6-------------|
G|------------------------------------------|
D|-3-3-2-2/3--2/3---3/5---5/7---------------|
A|------------------------------------------|
E|------------------------------------------|

Dm7                                C/E   F
    Então é isso, pra encerrar nossa conversa
                                         C
Eu vou morar na roça, te dar uns neto e cuidar dela
Composição de Fred Liel / Geraldinho / Márcio Junior
Colaboração e revisão:
  • Thiago Almeida
443 exibições
    • ½ Tom
    • A
    • Bb
    • B
    • C
    • Db
    • D
    • Eb
    • E
    • F
    • F#
    • G
    • Ab
  • Adicionar à lista

    0 comentários

    Mostrar mais comentários
    00:00 / 00:00
    outros vídeos desta música
    repetir qualidade Automático
    Outros vídeos desta música
    00:00 / 00:00
    Automático

    Cifra Club Pro

    Aproveite o Cifra Club com benefícios exclusivos e sem anúncios
    7 dias grátis
    Cifra Club Pro
    Aproveite o Cifra Club com benefícios exclusivos e sem anúncios
    7 dias grátis
    OK