Cifra Club

Constellations

Jack Johnson

Cifra: Versão 5 (violão e guitarra)
tom: F# (forma dos acordes no tom de F) Capotraste na 1ª casa
************************
*Tabbed By: Jeff Hansen*
************************
This is a modified more correct version of my 
previous tab. 

Tuning:Standard; Capo on 1st fret
NOTE: All tabs relative to capo.




INTRO

E--3-2-3-5-3-2----1-----5/3-1------------------------2p0-------------]\
B--------------3----1---------1----1----3-1----3---------3-----------] \
G---------------------2---------0----0------0----2---------2---------]  \2
D--------------------------------------2-------0~--4-----------------]  /X
A----------------------------------3-LET RING------------------------] /
E--3~LET RING~~---1-LET RING~~~--------------------------------------]/

VERSE
E-------3---5--3--2--3--x--3-3-3-3---------0--0----------------------]
B-------0---0--0--0--0--3--5-3-3-3---------1--3----------------------] 
G-------0---0--0--0--0--0--5-5-5-5---then--0--2----------------------]  
D-------x---x--x--x--x--x--5-5-5-5---------2--0----------------------]  
A-------x---x--x--x--x--x--3-3-3-3---------3--x----------------------] 
E-------3---3--3--3--3--3---------------------3----------------------]

Chorus (chords)

E-----5---1--3--5----------------------------------------------------]
B-----5---1--5--7----------------------------------------------------]
G-----4---4--5--7---Figure out the strumming-------------------------]
D-----5---3--5--7----------------------------------------------------]
A-----5---3--3--5----------------------------------------------------]
E-----3---1----------------------------------------------------------]



Solo 
99% correct. 

E--3----5---3--7---5---3--3-----------3--------------3-----5---------]
B--------------------------3-----0-----33----0-1/3---------------5---]
G----4/5-5/4----7/5-5/4-----4-0h2--/4-----0h2----------4/5---5/4-----]
D--------------------------------------------------------------------]
A--------------------------------------------------------------------]
E--------------------------------------------------------------------]

E--7-5/3---3/5-3---3p0-----3p0--3---3--------------------------------]
B--------0-------5----3---3-------3--3p0-----------------------------]
G-----------------------/4-------0-0---------------------------------]
D--------------------------------------------------------------------]
A--------------------------------------------------------------------]
E--------------------------------------------------------------------]

Verse
Chorus
Intro 

The End!!!
Composição de Jack Johnson
1.061 exibições
    • ½ Tom
    • A
    • Bb
    • B
    • C
    • Db
    • D
    • Eb
    • E
    • F
    • F#
    • G
    • Ab
  • Adicionar à lista

    0 comentários

    Ver todos os comentários

    Conseguiu tocar?

    0 Tocaram 0 Ainda não

    Grave um vídeo tocando Constellations e nos envie!

    00:00 / 00:00
    Outros vídeos desta música
    Repetir Qualidade Automático
    Outros vídeos desta música
    00:00 / 00:00
    Automático

    Cifra Club Pro

    Aproveite o Cifra Club com benefícios exclusivos e sem anúncios
    Cifra Club Pro
    Aproveite o Cifra Club com benefícios exclusivos e sem anúncios
    OK