Notificações Amigos pendentes

      Legião Urbana

      Daniel Na Cova Dos Leões

      552.063 exibições
      Tom: C
      Intro: Am  G
      
      Riff 1 (intro):
      
      
             Am         G           Am         G
      E|-5----------3-----3---|-5----------3-----10-----|
      B|---5-3-5/3----3-3---3-|---5-3-5/3----3-3----8-7-|
      G|----------------------|-------------------------|
      D|----------------------|-------------------------|
      A|----------------------|-------------------------|
      E|----------------------|-------------------------|
      
      
             Am         G           Am         G
      E|-5----------3-----3---|-5----------3-----7----7-|
      B|---5-3-5/3----3-3---3-|---5-3-5/3----3-3---8----|
      G|----------------------|----------------------7--|
      D|----------------------|-------------------------|
      A|----------------------|-------------------------|
      E|----------------------|-------------------------|
      
      
      (Junto com riff 1 - intro)
      
       Am       G      Am          G
        Aquele gosto amargo do teu corpo
       Am       G       Am         G
        Ficou na minha boca por mais tempo:
       Am          G        Am           G
        De amargo e então salgado ficou doce,
       Am       G          Am          G
        Assim que o teu cheiro forte e lento
      
      Dm                  F               C
        Fez casa nos meus braços e ainda leve
                  Bb           Dm       F
        E forte e cego e tenso fez saber
          C                 Bb
        Que ainda era muito e muito pouco
      
      (Riff 1 - Intro)
      
      (Junto com riff 1 - intro)
       Am     G           Am                 G
        Faço nosso o meu segredo mais sincero
       Am     G        Am         G
        E desafio o instinto dissonante.
       Am     G            Am              G
        A insegurança não me ataca quando erro
       Am        G
        E o teu momento passa a ser o meu instante.
      
      Dm                     F
        E o teu medo de ter medo de ter medo
             C            Bb
        Não faz da minha força confusão:
             Dm                            F
        Teu corpo é meu espelho e em ti navego
                  C                      Bb
        E sei que tua correnteza não tem direção.
      
      Solo da guitarra:
      
      
      E|------|-13-12-13~/-|
      B|------|-13-13-13~/-|
      G|-2rp~-|-12-12-12~/-|
      D|-2rp~-|------------|
      A|------|------------|
      E|------|------------|
      
      
      Dm                        F
        Mas, tão certo quanto o erro de ser barco
            C          Bb
        A motor e insistir em usar os remos,
            Dm                             F
        É o mal que a água faz quando se afoga
                  C                          Bb
        E o salva-vidas não está  porque não vemos.
      
      (Riff 1 - Intro)
      
      
             Am         G           Am         G
      E|-5----------3-----3---|-5----------3-----10-----|
      B|---5-3-5/3----3-3---3-|---5-3-5/3----3-3----8-7-|
      G|----------------------|-------------------------|
      D|----------------------|-------------------------|
      A|----------------------|-------------------------|
      E|----------------------|-------------------------|
      
      
             Am         G           Am         G
      E|-5----------3-----3---|-5----------3-----7----7-|
      B|---5-3-5/3----3-3---3-|---5-3-5/3----3-3---8----|
      G|----------------------|----------------------7--|
      D|----------------------|-------------------------|
      A|----------------------|-------------------------|
      E|----------------------|-------------------------|
      
      
      Solo do violão:
      
      Base: F  G4  G  G4 G  (2x)
            F  G4 G G4 G   F   G4  G  G4  G  (2x)
            F  G4 G G4 G  (2x)
      
      
      E|-5-5-5--8--7--8--7-|2 |-5-5-5--8-7-8-7--5-5-5--8--7--8--7-|2 |-5-5-5--8-7-8-7-|2
      B|-6-6-6--8--8--8--8-|v |-6-6-6--8-8-8-8--6-6-6--8--8--8--8-|v |-6-6-6--8-8-8-8-|v
      G|-5-5-5--7--7--7--7-|e |-5-5-5--7-7-7-7--5-5-5--7--7--7--7-|e |-5-5-5--7-7-7-7-|e
      D|-------------------|z |-----------------------------------|z |----------------|z
      A|-------------------|e |-----------------------------------|e |----------------|e
      E|-------------------|s |-----------------------------------|s |----------------|s
      
      
      Solo do teclado:
      
      Teclado 1: C
      Teclado 2: C5  B5  A5  G#5  G5  F#5  F5  E5 D5 
      
      
            C           C5       B5      A5     G#5    G5     F#5    F5     E5     D5
      |----------||--------------------------------------------------------------|
      |------8---||--------------------------------------------------------------|
      |--------9-||------------------------------------------------------------7-|
      |-10...----||-10-------9-------7------6------5------4------3------2------7-|
      |----------||-10-------9-------7------6------5------4------3------2------5-|
      |----------||-8--------7-------5------4------3------2------1------0--------|
      
      
        Composição: Renato RussoColaboração e revisão:
        • Matcher
        • Elson
        • BlackWizard
        • Harry

        Comentários 18

        140 .
        • Marllon Marllon : Em 06/03/2015 02:34

          video aula

        • victorprazeres victorprazeres: Em 29/09/2014 17:48

          video aula

        • Ana Ana: Em 21/06/2014 12:36

          Muito fácil!

        • Elson Elson: Em 30/03/2014 11:18

          Galera, mandem e-mails pedindo a música!!!

        • Daniel Saldanha Daniel Saldanha: Em 22/06/2013 11:19

          nao consigo fazer o começo...

        • thallisso thallisso: Em 06/04/2013 02:44

          os acordes e o ritmo são fáceis, pra essa cifra ta faltando só melhorar essa tablatura da intro... ela tá ruim...

        • waldrich waldrich: Em 01/09/2012 21:36

          muito boa essa música pena q o video não compensa

        • exii exii: Em 07/06/2012 14:22

          Ah melhor musika do legiao sem video aula assim naum daah. Eai pessoal do cifra club vamo parar de fazer essas vídeo aulas de Musicas sertan

        • saviocutalo saviocutalo: Em 03/06/2012 16:14

          a intro ta confusa

        • flikknot flikknot: Em 26/04/2012 19:54

          o foda é os solinhos mas os acordes e o ritmo é facin!

        140 cancelar

        conseguiu tocar?

        • •••
        CBJUNIOR04 - Rock Nacional no Baixo - Bass Cover1.711 visualizações
          ver covers de outras músicas »
          0:00 / 0:00

          Capítulos

            2 versões de baixo exibições contribuição e correção
            1 versão de Guitar Proformatodownloadscontribuição
            play/pausefechar subir/descer velocidade
            6ª corda E5ª corda A4ª corda D3ª corda G2ª corda B1ª corda E
              acordes
              publicidade
              fechar
              ok