Cifra Club

Sete Cidades

Legião Urbana

Cifra: Principal (violão e guitarra)
Selo Cifra Club: esta cifra foi revisada para atender aos critérios oficiais da nossa Equipe de Qualidade.
tom: C
[Intro] C  Am7  F  G
        C  Am7  F
 
[Tab - Intro]

E|-------------------------------------------------------------0--|
B|-1-------------1------------1-----1---------1------------1----1-|
G|----0--------0---0--0------0-----0--------0---0--0------0-------|
D|-------3--0^2------2----0^2-----------0^2------2---0^2----------|
A|------------------------------3----------------------------3----|
E|----------------------------------------------------------------|

[Solo - Gaita]

E|----------------------------------------------------------------|
B|-----0--1-------------------------------------------------------|
G|--0-------------------------------------------------------------|
D|-----5--3-------------------------------------------------------|
A|--3-------------------------------------------------------------|
E|----------------------------------------------------------------|

         C    Am7       F   G
 Já me acostumei com a tua voz
      C           Am7   F  G
 Com teu rosto e teu olhar
        C      Am7
 Me partiu em dois
       F     G         C     Am7  F G
 E procuro agora o que é minha metade
        Am     F     G
 Quando não estás aqui
        Am    F      G
 Sinto falta de mim mesmo
          Bb           Am             F  G
 E sinto falta do meu corpo junto ao teu
  C  Am7    F G
 Meu     coração
C        Am7         F    G
  É tão tosco e tão pobre
      C    Am7  F  G
 Não sabe ainda
C       Am7       F    G
  Os caminhos do mundo
         Am    F     G
 Quando não estás aqui
        Am   F      G
 Tenho medo de mim mesmo
          Bb           Am              F  G  C
 E sinto falta do teu corpo junto ao meu

         G                        F       C
 Vem depressa pra mim que eu não sei esperar
        F       Am       G
 Já fizemos promessas demais
         C    F         C   F
 Já me acostumei com a tua voz
          Am            G  F   C
Quando estou contigo estou em paz

         Am    F     G
 Quando não estás aqui
        Am  F     G
 Meu espírito se perde
  Bb  Am
 Voa longe
 F      G    C
Longe, longe

[Final] Bb  Am7  G  F 
        Em  Am  Dm  G 

[Tab - Final]

          F     C     G     C
E|--------------------------|
B|--------------------------|
G|--------------------------|
D|--0-2-3--2-0-----2--------|
A|-------------3-5----0-2-3-|
E|------------------3-------|
Outros vídeos desta música
    470.184 exibições
      • ½ Tom
      • A
      • Bb
      • B
      • C
      • Db
      • D
      • Eb
      • E
      • F
      • F#
      • G
      • Ab
    • Adicionar à lista

    Afinação da cifra

    Afinador online

      0 comentários

      Ver todos os comentários

      Entre para o Cifra Club PRO

      Tenha acesso a benefícios exclusivos no App e no Site

      • Chega de anúncios

      • Badges exclusivas

      • Mais recursos no app do Afinador

      • Atendimento Prioritário

      • Aumente seu limite de lista

      • Ajude a produzir mais conteúdo

      Cifra Club Pro

      Aproveite o Cifra Club com benefícios exclusivos e sem anúncios
      Cifra Club Pro
      Aproveite o Cifra Club com benefícios exclusivos e sem anúncios
      OK