Cifra Club

Aprenda

Coração Mal Assombrado

Marília Mendonça

Cifra: Principal (violão e guitarra)
Tom: Bm (forma dos acordes no tom de Am) Capotraste na 2ª casa
[Intro]

      Am                        E
E|---------8----7----10------8---7------|
B|-------------------------------7------|
G|----2/9--9--9/7--7/10---10/9----------|
D|--------------------------------------|
A|-0-------------------------8---7------|
E|--------------------------------------|

[Primeira Parte]

       Am               F9         C/E
E|--------------------------------------|
B|-----1---1---1--------1---------------|
G|---2---2---2---2----0---0---0---0-----|
D|------------------3-------3---2-------|
A|-0------------------------------------|
E|--------------------------------------|

      Dm                     E
E|----------------------------------0---|
B|-----3------6--5--3--1--0---------0---|
G|---2---2----------------1----1----1---|
D|-0----------7--5--3--2-----2---2--2---|
A|----------------------------------2---|
E|----------------------------------0---|

  Am
Quando encostar a cabeça
              F9   C/E
No seu travesseiro
     Dm
Não vai ser só a consciência
           E
Que vai pesar

[Segunda Parte]

       Am               F9           C/E
E|--------------------------------------|
B|-----1---1---1--------1-------1----1--|
G|---2---2---2---2----0---0---0----0----|
D|------------------3-------3----2------|
A|-0------------------------------------|
E|--------------------------------------|

       Dm                     E
E|--------------------------------------|
B|-----3------6--5--3--1--0--------5----|
G|---2---2----------------1--1----------|
D|-0----------7--5--3--2----2-2/6--6----|
A|--------------------------------------|
E|--------------------------------------|

     Am
Dos seus pesadelos comigo
                F9    C/E
Esse é só o primeiro
     Dm
Quanto mais cê tentar fugir
                      E
Mais cê vai me encontrar

[Pré Refrão]

       Am            F9            Dm
E|--------------------------------1-x-1-|
B|----1-x--1---x----1-x--1-------3--x-3-|
G|---2--x--2---x---0--x--0------2---x-2-|
D|--2---x--2---x--3---x--3--2--0----x-0-|
A|-0----x--0---x-3----x--3--------------|
E|--------------------------------------|

       E
E|-0-0-0-0-0----------------------------|
B|-0-0-0-0-0----------------------------|
G|-1-1-1-1-1----------------------------|
D|-2-2-2-2-2----------------------------|
A|-2-2-2-2-2----------------------------|
E|-0-0-0-0-0----------------------------|

       Am
Tô naquele banho demorado
   F9                          C/E
No CD que não sai do seu carro
        Dm
Vai ter um pedacinho de mim
                E
Por onde cê passar

[Refrão]

              Am
Tô em todo lugar
                        F9
No gosto amargo da sua boca
                        Dm
No choro que molha sua roupa
                                 E
Eu tô nos encontros que deram errado

              Am
Tô em todo lugar
                            F9
No espaço que sobra na sua cama
                           Dm
Eu tô no silêncio que te chama
                                  E
Cê tá delirando eu não tô do seu lado
                                Am
É seu coração que tá Mal Assombrado

( Am  F9  Dm  E )

        Am           F9              Dm
E|---8---7---10---8--8---7---10---8----|
B|-------------------------------------|
G|-2/9---7---10---9--9---7---10---9----|
D|-------------------------------------|
A|-------------------------------------|
E|-------------------------------------|

                            E
E|-----------------------7-------------|
B|----6--5--3--1--0------5-------------|
G|----------------1---1----------------|
D|--2/7--5--3--2-----2-2/6-------------|
A|-------------------------------------|
E|-------------------------------------|

[Pré Refrão]

       Am            F9            Dm
E|--------------------------------1-x-1-|
B|----1-x--1---x----1-x--1-------3--x-3-|
G|---2--x--2---x---0--x--0------2---x-2-|
D|--2---x--2---x--3---x--3--2--0----x-0-|
A|-0----x--0---x-3----x--3--------------|
E|--------------------------------------|

       E
E|-0-0-0-0-0----------------------------|
B|-0-0-0-0-0----------------------------|
G|-1-1-1-1-1----------------------------|
D|-2-2-2-2-2----------------------------|
A|-2-2-2-2-2----------------------------|
E|-0-0-0-0-0----------------------------|

       Am
Tô naquele banho demorado
   F9                          C/E
No CD que não sai do seu carro
        Dm
Vai ter um pedacinho de mim
                E
Por onde cê passar

[Refrão]

              Am
Tô em todo lugar
                        F9
No gosto amargo da sua boca
                        Dm
No choro que molha sua roupa
                                 E
Eu tô nos encontros que deram errado

              Am
Tô em todo lugar
                            F9
No espaço que sobra na sua cama
                           Dm
Eu tô no silêncio que te chama
                                  E
Cê tá delirando eu não tô do seu lado
É seu

              Am
Tô em todo lugar
                        F9
No gosto amargo da sua boca
                        Dm
No choro que molha sua roupa
                                 E
Eu tô nos encontros que deram errado

              Am
Tô em todo lugar
                            F9
No espaço que sobra na sua cama
                           Dm
Eu tô no silêncio que te chama
                                  E
Cê tá delirando eu não tô do seu lado
                                Am
É seu coração que tá Mal Assombrado

[Final]  Am  F9  Dm

        Am           F9              Dm
E|---8---7---10---8--8---7---10---8----|
B|-------------------------------------|
G|-2/9---7---10---9--9---7---10---9----|
D|-------------------------------------|
A|-------------------------------------|
E|-------------------------------------|
Composição de Danillo Dávilla / Gabriel Agra / Matheus Marcolino / Thales Lessa
Colaboração e revisão:
  • Eduardo Lopes
  • Lucas Kappaun
  • Yuri Oliveira
47.064 exibições
    • ½ Tom
    • Am
    • Bbm
    • Bm
    • Cm
    • C#m
    • Dm
    • Ebm
    • Em
    • Fm
    • F#m
    • Gm
    • G#m
  • Adicionar à lista

    0 comentários

    Mostrar mais comentários

    Conseguiu tocar?

    1 Tocaram 7 Ainda não

    Grave um vídeo tocando Coração Mal Assombrado e mande pra gente!

    00:00 / 00:00
    outros vídeos desta música
    repetir qualidade Automático
    Outros vídeos desta música
    00:00 / 00:00
    Automático
    OK