Cifra Club

Aprenda

Unwell (acústico)

Matchbox Twenty

Cifra: Principal (violão e guitarra)
tom: A
(Intro)
Asus2, D9, F#m, E (2x)

e|------5--7--5-------------5--7--5---5~-
B|-5/7--5--7--5--7-5---5/7--5--7--5---5~-
G|-4/6-----------6-4---4/6---------------
D|---------------------------------------
A|---------------------------------------
E|---------------------------------------

e|------5--7--5-------------5--7--5---4~- Solo feito em "double stops"
B|-5/7--5--7--5--7-5---5/7--5--7--5---5~-          W A L T E R
G|-4/6-----------6-4---4/6---------------
D|---------------------------------------
A|---------------------------------------
E|---------------------------------------

e|------5--7--5-------------5--7--5---5~----7--5------------5--7--5-
B|-5/7--5--7--5--7-5---5/7--5--7--5---5~----7--5--7-5--5/7--5--7--5-
G|-4/6-----------6-4---4/6------------------------6-4--4/6----------
D|------------------------------------------------------------------
A|------------------------------------------------------------------
E|------------------------------------------------------------------

e|------5--7--5-------------5--7--5---5~-------------------
B|-5/7--5--7--5--7-5---5/7--5--7--5---4~----5----5/7--7/9~-
G|-4/6-----------6-4---4/6--------------------4--4/6--6/9~-
D|---------------------------------------------------------
A|---------------------------------------------------------
E|---------------------------------------------------------

Verse|

D9   E  
All day
Asus2           F#m
Staring at the ceiling making
D9            E             F#m
 Friends with shadows on my wall
D9   E 
 All night
Asus2           F#m
Hearing voices telling me
     D9
That I should get some sleep
           E
Because tomorrow might be good for something

(Pre Chorus)

C#m   D9
 Hold on 
Asus2             E            
Feeling like I'm headed for a 
C#m   D9
 Breakdown
   Asus2          E
And I don't know why

(Chorus)

Asus2                              D9 
I'm not crazy I'm just a little unwell
I know right now you can't tell
F#m                                   E
 But stay awhile and maybe then you'll see
A different side of me
Asus2                             D9
I'm not crazy I'm just a little impaired
I know right now you don't care
F#m                                    E
 But soon enough you're gonna think of me
                  D9 E
And how I used to be me

Asus2            F#m
I'm talking to myself in public
D9        E             F#m 
Dodging glances on the train
D9  E
 I know
Asus2                    F#m
I know they've all been talking 'bout me
D9
I can hear them whisper
        E                                      C#m
And it makes me think there must be something wrong
     D9
With me
Asus2           E
Out of all the hours thinking
C#m  D9
 Somehow
Asus2     E      
I've lost my mind

(Chorus)
Asus2                                 D9 
But I'm not crazy I'm just a little unwell
I know right now you can't tell
F#m                                   E
 But stay awhile and maybe then you'll see
A different side of me
Asus2                             D9
I'm not crazy, I'm just a little impaired
I know right now you don't care
F#m                                    E
 But soon enough you're gonna think of me
                  D9
And how I used to be

(Bridge)
D9 F#                   D9
   I've been talking in my sleep
F#                          D9
Pretty soon they'll come to get me
F#                  E 
They'll be taking me away

(Chorus)
Asus2                              D9 
I'm not crazy I'm just a little unwell
I know right now you can't tell
F#m                                   E
 But stay awhile and maybe then you'll see
A different side of me
Asus2                             D9
I'm not crazy, I'm just a little impaired
I know right now you don't care
F#m                                    E
 But soon enough you're gonna think of me
                  D9
And how I used to be

(Final)
Asus2, D9, F#m, E 
(Continue tocando até o final)

And how I used to be
How I used to be
How I used to be
I'm just a little unwell
How I used to be
How I used to be
I'm just a little unwell...

E|---0----0----0----0-------| 
B|---0----0----0---------2--| 
G|---1----2----1---------2--| 
D|---2----2----2---------2--| 
A|---2----2----2---------0--| 
E|---0----0----0------------|
Colaboração e revisão:
  • Anna Gabriella
  • Breno Carecho
  • Wilian N
69.817 exibições
    • ½ Tom
    • A
    • Bb
    • B
    • C
    • Db
    • D
    • Eb
    • E
    • F
    • F#
    • G
    • Ab
  • Adicionar à lista

    0 comentários

    Ver todos os comentários

    Conseguiu tocar?

    3 Tocaram 1 Ainda não

    Grave um vídeo tocando Unwell (acústico) e nos envie!

    00:00 / 00:00
    outros vídeos desta música
    repetir qualidade Automático
    Outros vídeos desta música
    00:00 / 00:00
    Automático

    Cifra Club Pro

    Aproveite o Cifra Club com benefícios exclusivos e sem anúncios
    Cifra Club Pro
    Aproveite o Cifra Club com benefícios exclusivos e sem anúncios
    OK