Cifra Club

Me Amar Amanhã

Matheus e Kauan

Cifra: Principal
exibições 232.521
Tom: C
Solo 1:

Parte 1 de 4
E|----------------------------------------------------|
B|-5-5---3-3-----1------------------------------------|
G|----------------------------------------------------|
D|----------------------------------------------------|
A|----------------------------------------------------|
E|----------------------------------------------------|

Parte 2 de 4
E|----------------------------------------------------|
B|-5-5---3-3---1-1h3----------------------------------|
G|----------------------------------------------------|
D|----------------------------------------------------|
A|----------------------------------------------------|
E|----------------------------------------------------|

Parte 3 de 4
E|---------------0-1-0-1-0-1-0-1-3-1-0-1-3------------------|
B|-5-5---3-3---1----------------------------1-3-1-----------|
G|----------------------------------------------------------|
D|----------------------------------------------------------|
A|----------------------------------------------------------|
E|----------------------------------------------------------|

Parte 4 de 4
E|----------------------------------------------------|
B|--1-3---1---0---------------------------------------|
G|----------------------------------------------------|
D|----------------------------------------------------|
A|----------------------------------------------------|
E|----------------------------------------------------|

Intro:  F  G  Am  C
        F  G

Primeira parte:

 Am
Meu corpo está pedindo
 G
Mais uma vez o seu
   Am
O seu cheiro ainda prende
   G
O meu pensamento ao seu
              F    G
Eu quero mais uma vez
            Am
Sentir esse arrepio
           F
Traga mais uma vez
G                       Am
  O seu calor pra espantar meu frio

Refrão:

                   F                    G
O seu beijo de manhã com gosto de hortelã
               Am
Eu largo tudo hoje se você me prometer
                     F
Que vai me amar amanhã
                     G
Sabe que eu sou seu fã
               Am
Vamos virar a noite se você me prometer
                     F
Que vai me amar amanhã
       G  Am
De manhã

(Solo 1)

Primeira parte:

 Am
Meu corpo está pedindo
 G
Mais uma vez o seu
   Am
O seu cheiro ainda prende
   G
O meu pensamento ao seu
              F    G
Eu quero mais uma vez
            Am
Sentir esse arrepio
           F
Traga mais uma vez
G                       Am
  O seu calor pra espantar meu frio

Refrão 2x:

                   F                    G
O seu beijo de manhã com gosto de hortelã
               Am
Eu largo tudo hoje se você me prometer
                     F
Que vai me amar amanhã
                     G
Sabe que eu sou seu fã
               Am
Vamos virar a noite se você me prometer
                     F
Que vai me amar amanhã
       G  Am
De manhã
Acordes para:
    Colaboração e revisão:

    0 comentários

      mostrar mais comentários

      Conseguiu tocar?

      10tocaram3ainda não

      Grave um vídeo tocando Me Amar Amanhã e mande pra gente!

      00:00 / 00:00
      outros vídeos desta música
      repetirqualidadeautomática
      Outro vídeos desta música
        00:00 / 00:00
        automática
        OK