Cifra Club

Aprenda

Pastilhas Coloridas

Mundo Livre S/A

Tab de baixo: Principal
1ª Parte:
G|-------------------------------------------------------------------------------------------|
D|----7-5------------------7-5-----------------------7-5------------------7-5----------------|
A|--7-----------------5---------7-5-------------5-7------------------5---------7-5---------5-|
E|----------888-888----------------------888--------------888-888-------------------888------|
Repetir até o Refrão

Refrão:
G|---------------------------------------------------------------------|
D|-------------------9-9-----7---7-10-9-7------------------------------|
A|--7---7-7---9-10-7------10--------------10---------------------------|
E|---------------------------------------------------------------------|
Repetir 6 vezes

1ª Parte novamente até o Refrão.

Repetir refrão até o final da música.
Compositor não encontrado.
Colaboração e revisão:
  • Rodrigo Kiguti
14.475 exibições

0 comentários

Ver todos os comentários

Conseguiu tocar?

0 Tocaram 0 Ainda não

Grave um vídeo tocando Pastilhas Coloridas e nos envie!

00:00 / 00:00
Outros vídeos desta música
Repetir Qualidade Automático
Outros vídeos desta música
00:00 / 00:00
Automático

Cifra Club Pro

Aproveite o Cifra Club com benefícios exclusivos e sem anúncios
Cifra Club Pro
Aproveite o Cifra Club com benefícios exclusivos e sem anúncios
OK