Cifra Club

Momento Errado

Munhoz & Mariano

Cifra: Principal (violão e guitarra)
Tom: D (forma dos acordes no tom de C) Capotraste na 2ª casa
E|2------------|---------------|
A|2------------|---------------|
D|2-4----------|-4-------------|
G|2--4-6-6/9-7-|--4-6-6/9-7-6-7|
B|2------------|---------------|
E|2------------|---------------|

Am                      F
Não tô aqui pra dizer que vai ser o fim,
                Dm
Nem que eu queira desistir,
                 (Riff 1)
Não vou conseguir.
E|2------|-----|
A|2-2----|4----|
D|2--4---|-4---|
G|2---4--|--3--|
B|2----3-|---2-|
E|2------|-----|

Parte 2:
Am                           F
Mas vou dizer, espero que tente entender,
                Dm
Vai ser melhor pra mim e pra você,
              E
Não sei se vou me arrepender.

 F               G                    Am
Apareceu na minha vida no momento errado,   A|2------------12-|
F                Dm                         D|2-12--11--9-----|
A gente tem que dar um tempo
 E
Porque assim tá complicado.

Refrão 2x:
 Am                   G
Quem sabe hoje, amanhã ou daqui vinte anos
 F                    E
O tempo não vai apagar os nossos planos.
 Am                   G
Se for pra ser, vai ser, eu não duvido não,
 F                    E
É só um momento errado pro meu coração.

Solo:
E|2------------|---------------|------------|---------------------------|
A|2------------|---------------|------------|---------------------------|
D|2-4----------|-4-------------|4-----------|4------------------14------|
G|2--4-6-6/9-7-|--4-6-6/9-7-6-7|-4-6-6/11-9-|-4-6-6/11-11p12h11---11-9-7|
B|2------------|---------------|------------|---------------------------|
E|2------------|---------------|------------|---------------------------|

(Parte 2)

(Refrão)

Solo Final:
E|2------------|------------------|
A|2------------|------------------|
D|2-4----------|-4------------7/8-|
G|2--4-6-6/9-7-|--4-6-6/9-7-6-----|
B|2------------|------------------|
E|2------------|------------------|
exibições 8.861
Acordes para:
    Colaboração e revisão:
    • Luan Danilo

    0 comentários

    mostrar mais comentários

    Conseguiu tocar?

    1 tocaram 0 ainda não

    Grave um vídeo tocando Momento Errado e mande pra gente!

    00:00 / 00:00
    outros vídeos desta música
    repetir qualidade Automático
    Outros vídeos desta música
    00:00 / 00:00
    Automático
    OK