Cifra Club

To Te Querendo

Munhoz e Mariano

Cifra: Principal (violão e guitarra)
Tom: A#
     Bb             F              Gm           D#
E|----------6-------------6--------6---8---10-11-10-8-6-6----------------|
B|--4/6-6-8---6----4/6-6-8--8--------------------------------------------|
G|-------------------------------5/7-7/8-8/10-12-10-8-7-7----------------|   (2x)
D|-----------------------------------------------------------------------|
A|-----------------------------------------------------------------------|
E|-----------------------------------------------------------------------|

Bb                 F    Gm               D#
Essa mulher é um perigo, bagunçou meu coração
Bb                   F                     Gm                  D#
Eu que estava ali sozinho, precisando de carinho, veio como um furacão
Bb                F         Gm                   D#
Aí foi que eu me apaixonei, e a paixão entrou na veia
Bb               F       Gm                 D#
Eu acho que não me toquei, mas eu estou na sua teia

Bb             F             Gm                  D#
Tô te querendo, tô te amando, o tempo todo eu só penso em te ter
Bb             F                Gm                 D#
Venha correndo, tô te esperando, meu coração ainda chama por você (2x)
   Bb             F              Gm           D#
E|----------6-------------6--------6---8---10-11-10-8-6-6----------------|
B|--4/6-6-8---6----4/6-6-8--8--------------------------------------------|
G|-------------------------------5/7-7/8-8/10-12-10-8-7-7----------------|   (2x)
D|-----------------------------------------------------------------------|
A|-----------------------------------------------------------------------|
E|-----------------------------------------------------------------------|
exibições 21.123
Acordes para:
    Colaboração e revisão:
    • Bruno Boas
    • Lucas Fuchs

    0 comentários

    mostrar mais comentários

    Conseguiu tocar?

    1 tocaram 0 ainda não

    Grave um vídeo tocando To Te Querendo e mande pra gente!

    00:00 / 00:00
    outros vídeos desta música
    repetir qualidade Automático
    Outros vídeos desta música
    00:00 / 00:00
    Automático
    OK