Cifra Club

Uma Vez Em Um Milhão

Munhoz e Mariano

Cifra: Principal (violão e guitarra)
Tom: Ab (forma dos acordes no tom de G) Capotraste na 1ª casa
Dedilhado:
        Em               C               G                D
E|--------------|---------------|---------------|-------------------|
B|------0-------|-------1-------|-------3-------|-------3/5-5/3-----|
G|----0---0---0-|-----0---0---0-|-----0---0---0-|-----2----------2-0|
D|--2-------0---|---2-------2---|---0-------0---|---0---------------|
A|--------------|-3-------------|---------------|-0-----------------|
E|-0------------|---------------|-3-------------|-------------------|

      Em                 C               G         D
E|--------------|---------------|---------------|---|
B|------0-------|-------1-------|-------3-------|-3-|
G|----0---0---0-|-----0---0---0-|-----0---0---0-|-2-|
D|--2-------0---|---2-------2---|---0-------0---|-0-|
A|--------------|-3-------------|---------------|---|
E|-0------------|---------------|-3-------------|---|

G                               D
Vou perguntar uma vez se você quer uma chance
    Em
tem tudo pra dar certo é só chegar mais perto,
C
Quem sabe vira até romance.
       G                             D
Não to falando de amor, mais meu coração eu conheço
  Em
E tá batendo forte, aproveitando a sorte
  C
Um beijo é um bom começo.
   Am
E|--------------|
B|-----1p0------|
G|-0h2-----2p0--|
D|--------------|
A|--------------|
E|--------------|

Pré-Refrão:
Am              Em                    G
Andava meio desligado, coração quase parado
            D
Não batia por ninguém
Am                 Em
Um beijo pode ser a chave
                 C                    D
A porta da paixão se abre, agente vai bem mais além.

Refrão 2x:
Em          C
Uma vez em um milhão
G                         D
não é em todo beijo que se encontra uma paixão.
Em         C
Mesmo assim meu coração
G                       D
Aposta nesse beijo, é só você não dizer não.
Dedilhado:
        Em               C              G                  D
E|--------------|---------------|---------------|-------------------|
B|------0-------|-------1-------|-------3-------|-------3/5-5/3-----|
G|----0---0---0-|-----0---0---0-|-----0---0---0-|-----2----------2-0|
D|--2-------0---|---2-------2---|---0-------0---|---0---------------|
A|--------------|-3-------------|---------------|-0-----------------|
E|-0------------|---------------|-3-------------|-------------------|

      Em             C             G               D
E|--------------|---------------|---------------|---|
B|------0-------|-------1-------|-------3-------|-3-|
G|----0---0---0-|-----0---0---0-|-----0---0---0-|-2-|
D|--2-------0---|---2-------2---|---0-------0---|-0-|
A|--------------|-3-------------|---------------|---|
E|-0------------|---------------|-3-------------|---|

G                               D
Vou perguntar outra vez se você quer uma chance
    Em
tem tudo pra dar certo é só chegar mais perto,
C
Quem sabe vira até romance.
       G                             D
Não to falando de amor, mais meu coração eu conheço
  Em
E tá batendo forte, aproveitando a sorte
  C
Um beijo é um bom começo.
   Am
E|--------------|
B|-----1p0------|
G|-0h2-----2p0--|
D|--------------|
A|--------------|
E|--------------|

Pré-Refrão:
Am              Em                    G
Andava meio desligado, coração quase parado
            D
Não batia por ninguém
Am                 Em
Um beijo pode ser a chave
                 C                    D
A porta da paixão se abre, agente vai bem mais além.

Refrão 2x:
Em          C
Uma vez em um milhão
G                         D
não é em todo beijo que se encontra uma paixão.
Em         C
Mesmo assim meu coração
G                       D
Aposta nesse beijo, é só você não dizer não.
Dedilhado:
        Em               C              G                  D
E|--------------|---------------|---------------|-------------------|
B|------0-------|-------1-------|-------3-------|-------3/5-5/3-----|
G|----0---0---0-|-----0---0---0-|-----0---0---0-|-----2----------2-0|
D|--2-------0---|---2-------2---|---0-------0---|---0---------------|
A|--------------|-3-------------|---------------|-0-----------------|
E|-0------------|---------------|-3-------------|-------------------|

      Em             C             G               D
E|--------------|---------------|---------------|---|
B|------0-------|-------1-------|-------3-------|-3-|
G|----0---0---0-|-----0---0---0-|-----0---0---0-|-2-|
D|--2-------0---|---2-------2---|---0-------0---|-0-|
A|--------------|-3-------------|---------------|---|
E|-0------------|---------------|-3-------------|---|
exibições 44.293
Acordes para:
    Colaboração e revisão:
    • Allan caixeta
    • Murilo Batista
    • Vinicius Carvalho

    0 comentários

    mostrar mais comentários

    Conseguiu tocar?

    8 tocaram 0 ainda não

    Grave um vídeo tocando Uma Vez Em Um Milhão e mande pra gente!

    00:00 / 00:00
    outros vídeos desta música
    repetir qualidade Automático
    Outros vídeos desta música
    00:00 / 00:00
    Automático
    OK