Cifra Club

Aprenda

Um Céu, Um Sol e Um Mar

Natiruts

Tab de baixo: Principal
G|---------------------------------------------------------------------|
D|---------------------------------------------------------------------|
A|-1----------------1------------1----------------1-------3-----3------|
E|---3-1-3--1-1-3-1---3-1-3--------3-1-3--1-1-3-1---3-1-3---3-1--------|

G|---------------------------------------------------------------------|
D|---------------------------------------------------------------------|
A|-1-------------------------------------------------------------------|  (4x)
E|---3-1-3--1-1-3-1----------------------------------------------------|

G|---------------------------------------------------------------------|
D|---------------------------------------------------------------------|
A|-1--------3-3-5-3-5-----3--3-3-5-3-----------------------------------|
E|---3-1-3------------5-1----------------------------------------------|

G|---------------------------------------------------------------------|
D|---------------------------------------------------------------------|
A|-1-------------------------------------------------------------------|  (7x)
E|---3-1-3--1-1-3-1----------------------------------------------------|

G|---------------------------------------------------------------------|
D|---------------------------------------------------------------------|
A|-1--------3-----3----------------------------------------------------|
E|---3-1-3----3-1------------------------------------------------------|

G|---------------------------------------------------------------------|
D|---------------------------------------------------------------------|
A|-1----------------1----------------1----------------1----------------|
E|---3-1-3--1-1-3-1---3-1-3--1-1-3-1---3-1-3--1-1-3-1---3-1-3----------|

G|---------------------------------------------------------------------|
D|-------7-------------------------------------------------------------|  (4x)
A|-5-5-8----3-3-6-3----------------------------------------------------|
E|---------------------------------------------------------------------|

G|---------------------------------------------------------------------|
D|---------------------------------------------------------------------|  (3x)
A|-1-------------------------------------------------------------------|
E|---3-1-3--1-1-3-1----------------------------------------------------|

G|---------------------------------------------------------------------|
D|-------7-------------------------------------------------------------|
A|-5-5-8----3-3-6--3-3-6-----------------------------------------------|
E|---------------------------------------------------------------------|
Composição de Alexandre Carlo
Colaboração e revisão:
  • Walter Brow
6 exibições

0 comentários

Mostrar mais comentários

Conseguiu tocar?

0 Tocaram 0 Ainda não

Grave um vídeo tocando Um Céu, Um Sol e Um Mar e mande pra gente!

00:00 / 00:00
outros vídeos desta música
repetir qualidade Automático
Outros vídeos desta música
00:00 / 00:00
Automático

Cifra Club Pro

Aproveite o Cifra Club com benefícios exclusivos e sem anúncios
7 dias grátis
Cifra Club Pro
Aproveite o Cifra Club com benefícios exclusivos e sem anúncios
7 dias grátis
OK