Cifra Club

Fix You

The Offspring

Tab de baixo: Principal
Tuning: EADG


Chorus
"I wish I could fix you..."
1.
G|-----------------------------------------|
D|-------------------------------7~--------|
A|-7~------------------5~------------------|
E|-----------7~----------------------------|

"I wish I could fix you..."
2.
G|-----------------------------------------|
D|-----------9~------------------7~--------|
A|-7~------------------5~------------------|
E|-----------------------------------------|

Outro
"Ha la la la la..."
3.
G|-----------------------------------------|
D|-----------9~------------------7~--------|
A|-7~------------------5~------------------|
E|-----------------------------------------|

Verse
"She sees a million stars like holes in the sky..."
4.
G|--------------------------------------------------------------------6677-|
D|----99-99----99-99-99999999-99999999----77-77----77-77----------7799-----|
A|-777--7---777--7---------------------555--5---555--5-----445577----------|
E|-------------------------------------------------------55----------------|

Chorus
"I wish I could fix you..."
5.
G|--------------------------------------------------------------------6677-|
D|----------------------------------------------------------------7799-----|
A|-7777777--77777679-2222222--22222244-5555555--55555457---445577----------|--x2
E|--------7-----------------2-----------------5----------55----------------| 

Outro
6.
G|--------------------------------------776---76---776---76----------------6677-|
D|-------------------9999999--999998911----7~---7~----7~---7~----------7799-----|
A|-7777777--77777679--------9-----------------------------------445577----------|
E|--------7---------------------------------------------------55----------------|

7.
G|-------------------------------------776---76---776---76----------------6677-|
D|----------------------------------------7~---7~----7~---7~----------7799-----|
A|-7777777--77777679-2222222--22222124-------------------------445577----------|
E|--------7-----------------2--------------------------------55----------------|
00:00 / 00:00
Outros vídeos desta música
Repetir
Outros vídeos desta música
Composição de The Offspring
Colaboração e revisão:
  • thyago
62 exibições

0 comentários

Ver todos os comentários

Conseguiu tocar?

0 Tocaram 0 Ainda não

Grave um vídeo tocando Fix You e nos envie!

Entre para oCifra Club PRO

Tenha acesso a benefícios exclusivos no App e no Site

  • Chega de anúncios

  • Prioridade de compra em lançamentos

  • Mais recursos no app do Afinador

  • Atendimento Prioritário

  • Descontos nos produtos Cifra Club

  • Ajude a produzir mais conteúdo

00:00 / 00:00

Cifra Club Pro

Aproveite o Cifra Club com benefícios exclusivos e sem anúncios
Cifra Club Pro
Aproveite o Cifra Club com benefícios exclusivos e sem anúncios
OK